  0
SECTION
  2
HEADER
  9
$ACADVER
  1
AC1015
  9
$ACADMAINTVER
 70
     6
  9
$DWGCODEPAGE
  3
ANSI_1254
  9
$INSBASE
 10
0.0
 20
0.0
 30
0.0
  9
$EXTMIN
 10
0.0
 20
0.0
 30
0.0
  9
$EXTMAX
 10
279.4
 20
215.9
 30
0.0
  9
$LIMMIN
 10
0.0
 20
0.0
  9
$LIMMAX
 10
279.4
 20
215.9
  9
$ORTHOMODE
 70
     0
  9
$REGENMODE
 70
     1
  9
$FILLMODE
 70
     1
  9
$QTEXTMODE
 70
     0
  9
$MIRRTEXT
 70
     1
  9
$LTSCALE
 40
1.0
  9
$ATTMODE
 70
     1
  9
$TEXTSIZE
 40
3.5
  9
$TRACEWID
 40
1.0
  9
$TEXTSTYLE
  7
Standard
  9
$CLAYER
  8
0
  9
$CELTYPE
  6
ByLayer
  9
$CECOLOR
 62
   256
  9
$CELTSCALE
 40
1.0
  9
$DISPSILH
 70
     0
  9
$DIMSCALE
 40
1.0
  9
$DIMASZ
 40
3.5
  9
$DIMEXO
 40
1.0
  9
$DIMDLI
 40
3.75
  9
$DIMRND
 40
0.0
  9
$DIMDLE
 40
0.0
  9
$DIMEXE
 40
1.0
  9
$DIMTP
 40
0.0
  9
$DIMTM
 40
0.0
  9
$DIMTXT
 40
3.5
  9
$DIMCEN
 40
2.5
  9
$DIMTSZ
 40
0.0
  9
$DIMTOL
 70
     0
  9
$DIMLIM
 70
     0
  9
$DIMTIH
 70
     1
  9
$DIMTOH
 70
     1
  9
$DIMSE1
 70
     0
  9
$DIMSE2
 70
     0
  9
$DIMTAD
 70
     1
  9
$DIMZIN
 70
     0
  9
$DIMBLK
  1

  9
$DIMASO
 70
     1
  9
$DIMSHO
 70
     1
  9
$DIMPOST
  1

  9
$DIMAPOST
  1

  9
$DIMALT
 70
     0
  9
$DIMALTD
 70
     3
  9
$DIMALTF
 40
0.0393700787
  9
$DIMLFAC
 40
1.0
  9
$DIMTOFL
 70
     1
  9
$DIMTVP
 40
0.0
  9
$DIMTIX
 70
     0
  9
$DIMSOXD
 70
     0
  9
$DIMSAH
 70
     0
  9
$DIMBLK1
  1

  9
$DIMBLK2
  1

  9
$DIMSTYLE
  2
ISO-25
  9
$DIMCLRD
 70
     0
  9
$DIMCLRE
 70
     0
  9
$DIMCLRT
 70
     0
  9
$DIMTFAC
 40
1.0
  9
$DIMGAP
 40
1.524
  9
$DIMJUST
 70
     0
  9
$DIMSD1
 70
     0
  9
$DIMSD2
 70
     0
  9
$DIMTOLJ
 70
     0
  9
$DIMTZIN
 70
     0
  9
$DIMALTZ
 70
     0
  9
$DIMALTTZ
 70
     0
  9
$DIMUPT
 70
     0
  9
$DIMDEC
 70
     2
  9
$DIMTDEC
 70
     2
  9
$DIMALTU
 70
     2
  9
$DIMALTTD
 70
     3
  9
$DIMTXSTY
  7
Standard
  9
$DIMAUNIT
 70
     0
  9
$DIMADEC
 70
     2
  9
$DIMALTRND
 40
0.0
  9
$DIMAZIN
 70
     0
  9
$DIMDSEP
 70
    44
  9
$DIMATFIT
 70
     3
  9
$DIMFRAC
 70
     0
  9
$DIMLDRBLK
  1

  9
$DIMLUNIT
 70
     2
  9
$DIMLWD
 70
    -2
  9
$DIMLWE
 70
    -2
  9
$DIMTMOVE
 70
     0
  9
$LUNITS
 70
     2
  9
$LUPREC
 70
     2
  9
$SKETCHINC
 40
1.0
  9
$FILLETRAD
 40
10.0
  9
$AUNITS
 70
     0
  9
$AUPREC
 70
     2
  9
$MENU
  1
.
  9
$ELEVATION
 40
0.0
  9
$PELEVATION
 40
0.0
  9
$THICKNESS
 40
0.0
  9
$LIMCHECK
 70
     0
  9
$CHAMFERA
 40
0.0
  9
$CHAMFERB
 40
0.0
  9
$CHAMFERC
 40
0.0
  9
$CHAMFERD
 40
0.0
  9
$SKPOLY
 70
     0
  9
$TDCREATE
 40
2458985.721371539
  9
$TDUCREATE
 40
2458985.596371539
  9
$TDUPDATE
 40
2458985.72137184
  9
$TDUUPDATE
 40
2458985.59637184
  9
$TDINDWG
 40
0.0000000116
  9
$TDUSRTIMER
 40
0.0000000116
  9
$USRTIMER
 70
     1
  9
$ANGBASE
 50
0.0
  9
$ANGDIR
 70
     0
  9
$PDMODE
 70
     0
  9
$PDSIZE
 40
-1.0
  9
$PLINEWID
 40
0.0
  9
$SPLFRAME
 70
     0
  9
$SPLINETYPE
 70
     6
  9
$SPLINESEGS
 70
     8
  9
$HANDSEED
  5
DD
  9
$SURFTAB1
 70
     6
  9
$SURFTAB2
 70
     6
  9
$SURFTYPE
 70
     6
  9
$SURFU
 70
     6
  9
$SURFV
 70
     6
  9
$UCSBASE
  2

  9
$UCSNAME
  2

  9
$UCSORG
 10
0.0
 20
0.0
 30
0.0
  9
$UCSXDIR
 10
1.0
 20
0.0
 30
0.0
  9
$UCSYDIR
 10
0.0
 20
1.0
 30
0.0
  9
$UCSORTHOREF
  2

  9
$UCSORTHOVIEW
 70
     0
  9
$UCSORGTOP
 10
0.0
 20
0.0
 30
0.0
  9
$UCSORGBOTTOM
 10
0.0
 20
0.0
 30
0.0
  9
$UCSORGLEFT
 10
0.0
 20
0.0
 30
0.0
  9
$UCSORGRIGHT
 10
0.0
 20
0.0
 30
0.0
  9
$UCSORGFRONT
 10
0.0
 20
0.0
 30
0.0
  9
$UCSORGBACK
 10
0.0
 20
0.0
 30
0.0
  9
$PUCSBASE
  2

  9
$PUCSNAME
  2

  9
$PUCSORG
 10
0.0
 20
0.0
 30
0.0
  9
$PUCSXDIR
 10
1.0
 20
0.0
 30
0.0
  9
$PUCSYDIR
 10
0.0
 20
1.0
 30
0.0
  9
$PUCSORTHOREF
  2

  9
$PUCSORTHOVIEW
 70
     0
  9
$PUCSORGTOP
 10
0.0
 20
0.0
 30
0.0
  9
$PUCSORGBOTTOM
 10
0.0
 20
0.0
 30
0.0
  9
$PUCSORGLEFT
 10
0.0
 20
0.0
 30
0.0
  9
$PUCSORGRIGHT
 10
0.0
 20
0.0
 30
0.0
  9
$PUCSORGFRONT
 10
0.0
 20
0.0
 30
0.0
  9
$PUCSORGBACK
 10
0.0
 20
0.0
 30
0.0
  9
$USERI1
 70
     0
  9
$USERI2
 70
     0
  9
$USERI3
 70
     0
  9
$USERI4
 70
     0
  9
$USERI5
 70
     0
  9
$USERR1
 40
0.0
  9
$USERR2
 40
0.0
  9
$USERR3
 40
0.0
  9
$USERR4
 40
0.0
  9
$USERR5
 40
0.0
  9
$WORLDVIEW
 70
     1
  9
$SHADEDGE
 70
     3
  9
$SHADEDIF
 70
    70
  9
$TILEMODE
 70
     1
  9
$MAXACTVP
 70
    64
  9
$PINSBASE
 10
0.0
 20
0.0
 30
0.0
  9
$PLIMCHECK
 70
     0
  9
$PEXTMIN
 10
1.0000000000E+20
 20
1.0000000000E+20
 30
1.0000000000E+20
  9
$PEXTMAX
 10
-1.0000000000E+20
 20
-1.0000000000E+20
 30
-1.0000000000E+20
  9
$PLIMMIN
 10
0.0
 20
0.0
  9
$PLIMMAX
 10
420.0
 20
297.0
  9
$UNITMODE
 70
     0
  9
$VISRETAIN
 70
     1
  9
$PLINEGEN
 70
     0
  9
$PSLTSCALE
 70
     1
  9
$TREEDEPTH
 70
  3020
  9
$CMLSTYLE
  2
Standard
  9
$CMLJUST
 70
     0
  9
$CMLSCALE
 40
20.0
  9
$PROXYGRAPHICS
 70
     1
  9
$MEASUREMENT
 70
     1
  9
$CELWEIGHT
370
    -1
  9
$ENDCAPS
280
     0
  9
$JOINSTYLE
280
     0
  9
$LWDISPLAY
290
     1
  9
$INSUNITS
 70
     4
  9
$HYPERLINKBASE
  1

  9
$STYLESHEET
  1

  9
$XEDIT
290
     1
  9
$CEPSNTYPE
380
     0
  9
$PSTYLEMODE
290
     1
  9
$FINGERPRINTGUID
  2
{798ed123-1744-4ea6-b015-ac3feb79b0ca}
  9
$VERSIONGUID
  2
{FAEB1C32-E019-11D5-929B-00C0DF256EC4}
  9
$EXTNAMES
290
     1
  9
$PSVPSCALE
 40
0.0
  9
$OLESTARTUP
290
     0
  0
ENDSEC
  0
SECTION
  2
CLASSES
  0
CLASS
  1
ACDBDICTIONARYWDFLT
  2
AcDbDictionaryWithDefault
  3
ObjectDBX Classes
 90
        0
280
     0
281
     0
  0
CLASS
  1
VISUALSTYLE
  2
AcDbVisualStyle
  3
ObjectDBX Classes
 90
     4095
280
     0
281
     0
  0
CLASS
  1
MATERIAL
  2
AcDbMaterial
  3
ObjectDBX Classes
 90
     1153
280
     0
281
     0
  0
CLASS
  1
SCALE
  2
AcDbScale
  3
ObjectDBX Classes
 90
     1153
280
     0
281
     0
  0
CLASS
  1
TABLESTYLE
  2
AcDbTableStyle
  3
ObjectDBX Classes
 90
     4095
280
     0
281
     0
  0
CLASS
  1
MLEADERSTYLE
  2
AcDbMLeaderStyle
  3
ACDB_MLEADERSTYLE_CLASS
 90
     4095
280
     0
281
     0
  0
CLASS
  1
SUN
  2
AcDbSun
  3
SCENEOE
 90
     1153
280
     0
281
     0
  0
CLASS
  1
ACDBPLACEHOLDER
  2
AcDbPlaceHolder
  3
ObjectDBX Classes
 90
        0
280
     0
281
     0
  0
CLASS
  1
LAYOUT
  2
AcDbLayout
  3
ObjectDBX Classes
 90
        0
280
     0
281
     0
  0
ENDSEC
  0
SECTION
  2
TABLES
  0
TABLE
  2
VPORT
  5
8
330
0
100
AcDbSymbolTable
 70
     1
  0
VPORT
  5
29
330
8
100
AcDbSymbolTableRecord
100
AcDbViewportTableRecord
  2
*Active
 70
     0
 10
0.0
 20
0.0
 11
1.0
 21
1.0
 12
139.7
 22
107.95
 13
0.0
 23
0.0
 14
10.0
 24
10.0
 15
10.0
 25
10.0
 16
0.0
 26
0.0
 36
1.0
 17
0.0
 27
0.0
 37
0.0
 40
215.9
 41
1.2941176471
 42
50.0
 43
0.0
 44
0.0
 50
0.0
 51
0.0
 71
     0
 72
  2000
 73
     1
 74
     3
 75
     0
 76
     0
 77
     0
 78
     0
281
     0
 65
     1
110
0.0
120
0.0
130
0.0
111
1.0
121
0.0
131
0.0
112
0.0
122
1.0
132
0.0
 79
     0
146
0.0
  0
ENDTAB
  0
TABLE
  2
LTYPE
  5
5
330
0
100
AcDbSymbolTable
 70
     6
  0
LTYPE
  5
14
330
5
100
AcDbSymbolTableRecord
100
AcDbLinetypeTableRecord
  2
ByBlock
 70
     0
  3

 72
    65
 73
     0
 40
0.0
  0
LTYPE
  5
15
330
5
100
AcDbSymbolTableRecord
100
AcDbLinetypeTableRecord
  2
ByLayer
 70
     0
  3

 72
    65
 73
     0
 40
0.0
  0
LTYPE
  5
16
330
5
100
AcDbSymbolTableRecord
100
AcDbLinetypeTableRecord
  2
Continuous
 70
     0
  3
Solid line
 72
    65
 73
     0
 40
0.0
  0
LTYPE
  5
6E
330
5
100
AcDbSymbolTableRecord
100
AcDbLinetypeTableRecord
  2
HIDDEN
 70
     0
  3
Hidden __ __ __ __ __ __ __ __ __ __ __ __ __ __
 72
    65
 73
     2
 40
1.905
 49
1.27
 74
     0
 49
-0.635
 74
     0
  0
LTYPE
  5
6F
330
5
100
AcDbSymbolTableRecord
100
AcDbLinetypeTableRecord
  2
PHANTOM
 70
     0
  3
Phantom ______  __  __  ______  __  __  ______
 72
    65
 73
     6
 40
12.7
 49
6.35
 74
     0
 49
-1.27
 74
     0
 49
1.27
 74
     0
 49
-1.27
 74
     0
 49
1.27
 74
     0
 49
-1.27
 74
     0
  0
LTYPE
  5
70
330
5
100
AcDbSymbolTableRecord
100
AcDbLinetypeTableRecord
  2
CENTER
 70
     0
  3
Center ____ _ ____ _ ____ _ ____ _ ____ _ ____
 72
    65
 73
     4
 40
10.16
 49
6.35
 74
     0
 49
-1.27
 74
     0
 49
1.27
 74
     0
 49
-1.27
 74
     0
  0
LTYPE
  5
71
330
5
100
AcDbSymbolTableRecord
100
AcDbLinetypeTableRecord
  2
CENTERX2
 70
     0
  3
Center (2x) ________  __  ________  __  _____
 72
    65
 73
     4
 40
20.32
 49
12.7
 74
     0
 49
-2.54
 74
     0
 49
2.54
 74
     0
 49
-2.54
 74
     0
  0
LTYPE
  5
72
330
5
100
AcDbSymbolTableRecord
100
AcDbLinetypeTableRecord
  2
DOT2
 70
     0
  3
Dot (.5x) ........................................
 72
    65
 73
     2
 40
0.635
 49
0.0
 74
     0
 49
-0.635
 74
     0
  0
ENDTAB
  0
TABLE
  2
LAYER
  5
2
330
0
100
AcDbSymbolTable
 70
    17
  0
LAYER
  5
10
330
2
100
AcDbSymbolTableRecord
100
AcDbLayerTableRecord
  2
0
 70
     0
 62
     7
  6
Continuous
370
    -3
390
F
  0
LAYER
  5
73
330
2
100
AcDbSymbolTableRecord
100
AcDbLayerTableRecord
  2
FORMAT
 70
     0
 62
     7
  6
Continuous
370
    -3
390
F
  0
LAYER
  5
74
330
2
100
AcDbSymbolTableRecord
100
AcDbLayerTableRecord
  2
YARDIMCI_GEOMETRI
 70
     0
 62
    -6
  6
Continuous
290
     0
370
    -3
390
F
  0
LAYER
  5
75
330
2
100
AcDbSymbolTableRecord
100
AcDbLayerTableRecord
  2
SAYFA_CERCEVESI
 70
     0
 62
     7
  6
Continuous
370
    25
390
F
  0
LAYER
  5
76
330
2
100
AcDbSymbolTableRecord
100
AcDbLayerTableRecord
  2
ANTET
 70
     0
 62
     7
  6
Continuous
370
    -3
390
F
  0
LAYER
  5
77
330
2
100
AcDbSymbolTableRecord
100
AcDbLayerTableRecord
  2
OLCU
 70
     0
 62
   150
  6
Continuous
370
    -3
390
F
  0
LAYER
  5
78
330
2
100
AcDbSymbolTableRecord
100
AcDbLayerTableRecord
  2
METIN
 70
     0
 62
    96
  6
Continuous
370
    -3
390
F
  0
LAYER
  5
79
330
2
100
AcDbSymbolTableRecord
100
AcDbLayerTableRecord
  2
BALON
 70
     0
 62
     5
  6
Continuous
370
    -3
390
F
  0
LAYER
  5
7A
330
2
100
AcDbSymbolTableRecord
100
AcDbLayerTableRecord
  2
VURGU
 70
     0
 62
     7
  6
Continuous
370
    -3
390
F
  0
LAYER
  5
7B
330
2
100
AcDbSymbolTableRecord
100
AcDbLayerTableRecord
  2
SILIK
 70
     0
 62
     7
  6
Continuous
370
    -3
390
F
  0
LAYER
  5
7C
330
2
100
AcDbSymbolTableRecord
100
AcDbLayerTableRecord
  2
MODEL
 70
     0
 62
     7
  6
Continuous
370
    -3
390
F
  0
LAYER
  5
7D
330
2
100
AcDbSymbolTableRecord
100
AcDbLayerTableRecord
  2
DETAYLANDıRMA
 70
     0
 62
   190
  6
Continuous
370
    -3
390
F
  0
LAYER
  5
7E
330
2
100
AcDbSymbolTableRecord
100
AcDbLayerTableRecord
  2
TOLERANS
 70
     0
 62
   230
  6
Continuous
370
    -3
390
F
  0
LAYER
  5
7F
330
2
100
AcDbSymbolTableRecord
100
AcDbLayerTableRecord
  2
MERKEZ_CIZGILERI
 70
     0
 62
    30
  6
Continuous
370
    -3
390
F
  0
LAYER
  5
80
330
2
100
AcDbSymbolTableRecord
100
AcDbLayerTableRecord
  2
KESIT-DETAY_CIZGILERI
 70
     0
 62
     7
  6
Continuous
370
    -3
390
F
  0
LAYER
  5
81
330
2
100
AcDbSymbolTableRecord
100
AcDbLayerTableRecord
  2
\U+041E\U+0421\U+0415\U+0412\U+042B\U+0415
 70
     0
 62
     7
  6
Continuous
370
    -3
390
F
  0
LAYER
  5
82
330
2
100
AcDbSymbolTableRecord
100
AcDbLayerTableRecord
  2
\U+0412\U+041E\U+0414\U+042F\U+041D\U+042B\U+0415_\U+0417\U+041D\U+0410\U+041A\U+0418
 70
     0
 62
    11
  6
Continuous
370
    -3
390
F
  0
ENDTAB
  0
TABLE
  2
STYLE
  5
3
330
0
100
AcDbSymbolTable
 70
     1
  0
STYLE
  5
11
330
3
100
AcDbSymbolTableRecord
100
AcDbTextStyleTableRecord
  2
Standard
 70
     0
 40
0.0
 41
1.0
 50
0.0
 71
     0
 42
3.5
  3
txt
  4

  0
ENDTAB
  0
TABLE
  2
VIEW
  5
6
330
0
100
AcDbSymbolTable
 70
     0
  0
ENDTAB
  0
TABLE
  2
UCS
  5
7
330
0
100
AcDbSymbolTable
 70
     0
  0
ENDTAB
  0
TABLE
  2
APPID
  5
9
330
0
100
AcDbSymbolTable
 70
     1
  0
APPID
  5
12
330
9
100
AcDbSymbolTableRecord
100
AcDbRegAppTableRecord
  2
ACAD
 70
     0
  0
ENDTAB
  0
TABLE
  2
DIMSTYLE
  5
A
330
0
100
AcDbSymbolTable
 70
     1
100
AcDbDimStyleTable
  0
DIMSTYLE
105
27
330
A
100
AcDbSymbolTableRecord
100
AcDbDimStyleTableRecord
  2
ISO-25
 70
     0
 41
2.5
 42
0.625
 43
3.75
 44
1.25
 73
     0
 74
     0
 77
     1
 78
     8
140
2.5
141
2.5
143
0.0393700787
147
0.625
171
     3
172
     1
178
     0
271
     2
272
     2
274
     3
278
    44
283
     0
284
     8
340
11
  0
ENDTAB
  0
TABLE
  2
BLOCK_RECORD
  5
1
330
0
100
AcDbSymbolTable
 70
     3
  0
BLOCK_RECORD
  5
1F
330
1
100
AcDbSymbolTableRecord
100
AcDbBlockTableRecord
  2
*Model_Space
340
22
  0
BLOCK_RECORD
  5
1B
330
1
100
AcDbSymbolTableRecord
100
AcDbBlockTableRecord
  2
*Paper_Space
340
1E
  0
BLOCK_RECORD
  5
23
330
1
100
AcDbSymbolTableRecord
100
AcDbBlockTableRecord
  2
*Paper_Space0
340
26
  0
BLOCK_RECORD
  5
A5
330
1
100
AcDbSymbolTableRecord
100
AcDbBlockTableRecord
  2
SW_CENTERMARKSYMBOL_0
340
0
102
{BLKREFS
331
B0
102
}
  0
BLOCK_RECORD
  5
C3
330
1
100
AcDbSymbolTableRecord
100
AcDbBlockTableRecord
  2
SW_CENTERMARKSYMBOL_1
340
0
102
{BLKREFS
331
CE
102
}
  0
ENDTAB
  0
ENDSEC
  0
SECTION
  2
BLOCKS
  0
BLOCK
  5
20
330
1F
100
AcDbEntity
  8
0
100
AcDbBlockBegin
  2
*Model_Space
 70
     0
 10
0.0
 20
0.0
 30
0.0
  3
*Model_Space
  1

  0
ENDBLK
  5
21
330
1F
100
AcDbEntity
  8
0
100
AcDbBlockEnd
  0
BLOCK
  5
1C
330
1B
100
AcDbEntity
 67
     1
  8
0
100
AcDbBlockBegin
  2
*Paper_Space
 70
     0
 10
0.0
 20
0.0
 30
0.0
  3
*Paper_Space
  1

  0
ENDBLK
  5
1D
330
1B
100
AcDbEntity
 67
     1
  8
0
100
AcDbBlockEnd
  0
BLOCK
  5
24
330
23
100
AcDbEntity
  8
0
100
AcDbBlockBegin
  2
*Paper_Space0
 70
     0
 10
0.0
 20
0.0
 30
0.0
  3
*Paper_Space0
  1

  0
ENDBLK
  5
25
330
23
100
AcDbEntity
  8
0
100
AcDbBlockEnd
  0
BLOCK
  5
A6
330
A5
100
AcDbEntity
  8
0
100
AcDbBlockBegin
  2
SW_CENTERMARKSYMBOL_0
 70
     0
 10
0.0
 20
0.0
 30
0.0
  3
SW_CENTERMARKSYMBOL_0
  1

  0
LINE
  5
A8
330
A5
100
AcDbEntity
  8
FORMAT
 62
     0
100
AcDbLine
 10
0.0
 20
0.0
 30
0.0
 11
0.0
 21
2.5
 31
0.0
  0
LINE
  5
A9
330
A5
100
AcDbEntity
  8
FORMAT
 62
     0
100
AcDbLine
 10
0.0
 20
0.0
 30
0.0
 11
-2.5
 21
0.0
 31
0.0
  0
LINE
  5
AA
330
A5
100
AcDbEntity
  8
FORMAT
 62
     0
100
AcDbLine
 10
0.0
 20
0.0
 30
0.0
 11
0.0
 21
-2.5
 31
0.0
  0
LINE
  5
AB
330
A5
100
AcDbEntity
  8
FORMAT
 62
     0
100
AcDbLine
 10
0.0
 20
0.0
 30
0.0
 11
2.5
 21
0.0
 31
0.0
  0
LINE
  5
AC
330
A5
100
AcDbEntity
  8
FORMAT
 62
     0
100
AcDbLine
 10
0.0
 20
5.0
 30
0.0
 11
0.0
 21
40.0
 31
0.0
  0
LINE
  5
AD
330
A5
100
AcDbEntity
  8
FORMAT
 62
     0
100
AcDbLine
 10
-5.0
 20
0.0
 30
0.0
 11
-40.0
 21
0.0
 31
0.0
  0
LINE
  5
AE
330
A5
100
AcDbEntity
  8
FORMAT
 62
     0
100
AcDbLine
 10
0.0
 20
-5.0
 30
0.0
 11
0.0
 21
-40.0
 31
0.0
  0
LINE
  5
AF
330
A5
100
AcDbEntity
  8
FORMAT
 62
     0
100
AcDbLine
 10
5.0
 20
0.0
 30
0.0
 11
40.0
 21
0.0
 31
0.0
  0
ENDBLK
  5
A7
330
A5
100
AcDbEntity
  8
0
100
AcDbBlockEnd
  0
BLOCK
  5
C4
330
C3
100
AcDbEntity
  8
0
100
AcDbBlockBegin
  2
SW_CENTERMARKSYMBOL_1
 70
     0
 10
0.0
 20
0.0
 30
0.0
  3
SW_CENTERMARKSYMBOL_1
  1

  0
LINE
  5
C6
330
C3
100
AcDbEntity
  8
FORMAT
 62
     0
100
AcDbLine
 10
0.0
 20
0.0
 30
0.0
 11
0.0
 21
2.5
 31
0.0
  0
LINE
  5
C7
330
C3
100
AcDbEntity
  8
FORMAT
 62
     0
100
AcDbLine
 10
0.0
 20
0.0
 30
0.0
 11
-2.5
 21
0.0
 31
0.0
  0
LINE
  5
C8
330
C3
100
AcDbEntity
  8
FORMAT
 62
     0
100
AcDbLine
 10
0.0
 20
0.0
 30
0.0
 11
0.0
 21
-2.5
 31
0.0
  0
LINE
  5
C9
330
C3
100
AcDbEntity
  8
FORMAT
 62
     0
100
AcDbLine
 10
0.0
 20
0.0
 30
0.0
 11
2.5
 21
0.0
 31
0.0
  0
LINE
  5
CA
330
C3
100
AcDbEntity
  8
FORMAT
 62
     0
100
AcDbLine
 10
0.0
 20
5.0
 30
0.0
 11
0.0
 21
40.0
 31
0.0
  0
LINE
  5
CB
330
C3
100
AcDbEntity
  8
FORMAT
 62
     0
100
AcDbLine
 10
-5.0
 20
0.0
 30
0.0
 11
-40.0
 21
0.0
 31
0.0
  0
LINE
  5
CC
330
C3
100
AcDbEntity
  8
FORMAT
 62
     0
100
AcDbLine
 10
0.0
 20
-5.0
 30
0.0
 11
0.0
 21
-40.0
 31
0.0
  0
LINE
  5
CD
330
C3
100
AcDbEntity
  8
FORMAT
 62
     0
100
AcDbLine
 10
5.0
 20
0.0
 30
0.0
 11
40.0
 21
0.0
 31
0.0
  0
ENDBLK
  5
C5
330
C3
100
AcDbEntity
  8
0
100
AcDbBlockEnd
  0
ENDSEC
  0
SECTION
  2
ENTITIES
  0
LINE
  5
83
330
1F
100
AcDbEntity
  8
0
  6
Continuous
 62
     7
370
    25
100
AcDbLine
 10
88.0163966466
 20
100.1651699268
 30
0.0
 11
88.0163966466
 21
13.6981795155
 31
0.0
  0
LINE
  5
84
330
1F
100
AcDbEntity
  8
0
  6
Continuous
 62
     7
370
    25
100
AcDbLine
 10
163.0163996268
 20
13.6981795155
 30
0.0
 11
163.0163996268
 21
100.1651699268
 31
0.0
  0
ARC
  5
85
330
1F
100
AcDbEntity
  8
0
  6
Continuous
 62
     7
370
    25
100
AcDbCircle
 10
163.0163981367
 20
100.1651709265
 30
0.0
 40
75.0
100
AcDbArc
 50
135.0
 51
180.0
  0
LINE
  5
86
330
1F
100
AcDbEntity
  8
0
  6
Continuous
 62
     7
370
    25
100
AcDbLine
 10
172.9998945046
 20
216.2146905982
 30
0.0
 11
109.983389524
 21
153.1981865489
 31
0.0
  0
LINE
  5
87
330
1F
100
AcDbEntity
  8
0
  6
Continuous
 62
     7
370
    25
100
AcDbLine
 10
163.0163996268
 20
100.1651699268
 30
0.0
 11
226.0329036761
 21
163.1816814267
 31
0.0
  0
LINE
  5
88
330
1F
100
AcDbEntity
  8
0
  6
Continuous
 62
     7
370
    25
100
AcDbLine
 10
125.5163981367
 20
13.6981795155
 30
0.0
 11
163.0163996268
 21
13.6981795155
 31
0.0
  0
LINE
  5
89
330
1F
100
AcDbEntity
  8
0
  6
Continuous
 62
     7
370
    25
100
AcDbLine
 10
88.0163966466
 20
13.6981795155
 30
0.0
 11
125.5163981367
 21
13.6981795155
 31
0.0
  0
LWPOLYLINE
  5
8A
330
1F
100
AcDbEntity
  8
0
  6
Continuous
 62
     7
370
    25
100
AcDbPolyline
 90
       24
 70
   128
 43
0.0
 10
199.5163990904
 20
189.6981785618
 10
201.345799749
 20
187.8687779032
 10
203.1664906789
 20
186.0480944239
 10
204.9697770525
 20
184.2448005997
 10
206.7470832516
 20
182.4674944006
 10
208.4899305154
 20
180.7246545874
 10
210.1900114466
 20
179.0245662056
 10
211.8392347146
 20
177.3753503882
 10
213.4297250558
 20
175.7848451458
 10
214.9539201308
 20
174.260664972
 10
216.4045407225
 20
172.8100369298
 10
217.7746875931
 20
171.4398900591
 10
219.0578265835
 20
170.1567510687
 10
220.2478333164
 20
168.9667443358
 10
221.3390528012
 20
167.8755174004
 10
222.3262770821
 20
166.8883005702
 10
223.204797392
 20
166.0097728097
 10
223.9704339553
 20
165.2441362464
 10
224.6195359875
 20
164.5950416647
 10
225.1490114976
 20
164.065558704
 10
225.5563347388
 20
163.6582354628
 10
225.8395685602
 20
163.375009092
 10
225.9973569561
 20
163.2172206961
 10
226.0329036761
 20
163.1816814267
  0
LWPOLYLINE
  5
8B
330
1F
100
AcDbEntity
  8
0
  6
Continuous
 62
     7
370
    25
100
AcDbPolyline
 90
       24
 70
   128
 43
0.0
 10
172.9998945046
 20
216.2146905982
 10
173.0354412247
 20
216.1791364275
 10
173.1932296206
 20
216.0213480317
 10
173.4764597167
 20
215.7381216609
 10
173.8837829579
 20
215.3307984196
 10
174.413258468
 20
214.8013154589
 10
175.0623605002
 20
214.1522208773
 10
175.8279970635
 20
213.386584314
 10
176.7065210987
 20
212.5080565535
 10
177.6937416543
 20
211.5208397233
 10
178.7849611391
 20
210.4296127879
 10
179.9749715973
 20
209.2396060549
 10
181.2581068624
 20
207.9564670645
 10
182.628253733
 20
206.5863201939
 10
184.07887805
 20
205.1357070529
 10
185.6030693997
 20
203.6115119778
 10
187.1935634662
 20
202.0210067355
 10
188.8427792836
 20
200.371790918
 10
190.5428676654
 20
198.6717174374
 10
192.2857149292
 20
196.928862723
 10
194.0630136777
 20
195.1515565239
 10
195.8663075019
 20
193.3482626998
 10
197.6869909812
 20
191.5275792204
 10
199.5163990904
 20
189.6981785618
  0
LINE
  5
8C
330
1F
100
AcDbEntity
  8
0
  6
Continuous
 62
     1
370
    25
100
AcDbLine
 10
88.0163966466
 20
100.1651699268
 30
0.0
 11
163.0163996268
 21
100.1651699268
 31
0.0
  0
LWPOLYLINE
  5
8D
330
1F
100
AcDbEntity
  8
0
  6
Continuous
 62
     1
370
    25
100
AcDbPolyline
 90
       48
 70
   128
 43
0.0
 10
109.983389524
 20
153.1981865489
 10
109.9991894115
 20
153.1823764168
 10
110.1254776839
 20
153.0560890757
 10
110.3774516631
 20
152.8041104399
 10
110.7539108742
 20
152.4276624047
 10
111.25306159
 20
151.928503307
 10
111.8725252126
 20
151.309047135
 10
112.6093494494
 20
150.5722145163
 10
113.460022283
 20
149.7215519272
 10
114.4204915289
 20
148.7610826813
 10
115.486177874
 20
147.6953963362
 10
116.6520056103
 20
146.5295592867
 10
117.9124166046
 20
145.2691594683
 10
119.2614056889
 20
143.9201573454
 10
120.6925444093
 20
142.4890200221
 10
122.1990117591
 20
140.9825573288
 10
123.7736296861
 20
139.4079367243
 10
125.4088939057
 20
137.7726758443
 10
127.097011802
 20
136.0845605456
 10
128.8299388506
 20
134.3516300046
 10
130.5994165849
 20
132.5821543657
 10
132.3970125776
 20
130.7845527851
 10
134.2141612221
 20
128.9674083315
 10
136.0422021497
 20
127.1393636786
 10
137.8724242349
 20
125.3091434561
 10
139.6961056415
 20
123.4854648434
 10
141.5045543362
 20
121.6770152175
 10
143.2891546537
 20
119.8924149
 10
145.0414026875
 20
118.1401650034
 10
146.7529444743
 20
116.4286250793
 10
148.4156253536
 20
114.7659460627
 10
150.0215234954
 20
113.1600479209
 10
151.562985291
 20
111.6185824
 10
153.0326644678
 20
110.1489032232
 10
154.4235556174
 20
108.7580139362
 10
155.7290351738
 20
107.4525381052
 10
156.942876314
 20
106.2386895143
 10
158.059301113
 20
105.1222721659
 10
159.0729824055
 20
104.1085908734
 10
159.9790922154
 20
103.2024736129
 10
160.7733129312
 20
102.4082566225
 10
161.4518633832
 20
101.7297098958
 10
162.0115025688
 20
101.1700669848
 10
162.4495669056
 20
100.732002648
 10
162.7639739562
 20
100.4175955974
 10
162.9532149781
 20
100.2283508503
 10
163.0163996268
 20
100.1651699268
 10
163.0163996268
 20
100.1651699268
  0
LINE
  5
8E
330
1F
100
AcDbEntity
  8
0
  6
Continuous
 62
     7
370
    25
100
AcDbLine
 10
-57.8067800771
 20
189.6981785618
 30
0.0
 11
-57.8067800771
 21
126.6816745125
 31
0.0
  0
LINE
  5
8F
330
1F
100
AcDbEntity
  8
0
  6
Continuous
 62
     7
370
    25
100
AcDbLine
 10
17.1932229031
 20
126.6816745125
 30
0.0
 11
17.1932229031
 21
189.6981785618
 31
0.0
  0
LINE
  5
90
330
1F
100
AcDbEntity
  8
0
  6
Continuous
 62
     7
370
    25
100
AcDbLine
 10
-57.8067800771
 20
126.6816745125
 30
0.0
 11
-57.8067800771
 21
100.1651699268
 31
0.0
  0
LINE
  5
91
330
1F
100
AcDbEntity
  8
0
  6
Continuous
 62
     7
370
    25
100
AcDbLine
 10
17.1932229031
 20
100.1651699268
 30
0.0
 11
17.1932229031
 21
126.6816745125
 31
0.0
  0
LINE
  5
92
330
1F
100
AcDbEntity
  8
0
  6
Continuous
 62
     7
370
    25
100
AcDbLine
 10
-57.8067800771
 20
100.1651699268
 30
0.0
 11
-57.8067800771
 21
13.6981795155
 31
0.0
  0
LINE
  5
93
330
1F
100
AcDbEntity
  8
0
  6
Continuous
 62
     7
370
    25
100
AcDbLine
 10
17.1932229031
 20
13.6981795155
 30
0.0
 11
17.1932229031
 21
100.1651699268
 31
0.0
  0
LWPOLYLINE
  5
94
330
1F
100
AcDbEntity
  8
0
  6
Continuous
 62
     7
370
    25
100
AcDbPolyline
 90
       92
 70
   128
 43
0.0
 10
-57.8067800771
 20
189.6981785618
 10
-57.717425264
 20
187.8687779032
 10
-57.4497966837
 20
186.0480944239
 10
-57.0051609348
 20
184.2448005997
 10
-56.3856414329
 20
182.4674944006
 10
-55.5941923331
 20
180.7246545874
 10
-54.634579904
 20
179.0245662056
 10
-53.5113788019
 20
177.3753503882
 10
-52.2299459945
 20
175.7848451458
 10
-50.7963816445
 20
174.260664972
 10
-49.2175235223
 20
172.8100369298
 10
-47.5008892636
 20
171.4398900591
 10
-45.654665194
 20
170.1567510687
 10
-43.6876467239
 20
168.9667443358
 10
-41.6092066835
 20
167.8755174004
 10
-39.4292506199
 20
166.8883005702
 10
-37.1581683676
 20
166.0097728097
 10
-34.806781895
 20
165.2441362464
 10
-32.3862950127
 20
164.5950416647
 10
-29.9082440134
 20
164.065558704
 10
-27.3844385329
 20
163.6582354628
 10
-24.8269042741
 20
163.375009092
 10
-22.247829339
 20
163.2172206961
 10
-19.6595045664
 20
163.1856302344
 10
-17.0742643341
 20
163.2803718173
 10
-14.5044284682
 20
163.5010133111
 10
-11.9622438024
 20
163.8464967333
 10
-9.4598238166
 20
164.3151829564
 10
-7.0090950276
 20
164.9048219048
 10
-4.6217362206
 20
165.6126121604
 10
-2.3091225694
 20
166.4351860606
 10
-0.0822781395
 20
167.3686096989
 10
2.0481893052
 20
168.4084425293
 10
4.0721246232
 20
169.5497373663
 10
5.9798830379
 20
170.7870552861
 10
7.7623748411
 20
172.1144805275
 10
9.4111026455
 20
173.5257098996
 10
10.9182116766
 20
175.0140080773
 10
12.2765214373
 20
176.572282108
 10
13.4795555104
 20
178.1930963122
 10
14.5215788115
 20
179.8687467896
 10
15.3976329793
 20
181.5912465178
 10
16.1035382379
 20
183.3523700558
 10
16.6359343756
 20
185.1437280499
 10
16.9922770191
 20
186.9567970358
 10
17.1708748866
 20
188.7829343401
 10
17.1708748866
 20
190.6134227835
 10
16.9922770191
 20
192.4395600878
 10
16.6359343756
 20
194.2526290738
 10
16.1035382379
 20
196.0439870678
 10
15.3976329793
 20
197.805125507
 10
14.5215788115
 20
199.5276103341
 10
13.4795555104
 20
201.2032608115
 10
12.2765214373
 20
202.8240750157
 10
10.9182116766
 20
204.3823490464
 10
9.4111026455
 20
205.8706472241
 10
7.7623748411
 20
207.2818765961
 10
5.9798830379
 20
208.6093018376
 10
4.0721246232
 20
209.8466197573
 10
2.0481893052
 20
210.9879145943
 10
-0.0822781395
 20
212.0277474247
 10
-2.3091225694
 20
212.9611859643
 10
-4.6217362206
 20
213.7837449633
 10
-7.0090950276
 20
214.4915352189
 10
-9.4598238166
 20
215.0811741673
 10
-11.9622438024
 20
215.5498603903
 10
-14.5044284682
 20
215.8953438126
 10
-17.0742643341
 20
216.1159853064
 10
-19.6595045664
 20
216.2107268893
 10
-22.247829339
 20
216.1791364275
 10
-24.8269042741
 20
216.0213480317
 10
-27.3844385329
 20
215.7381216609
 10
-29.9082440134
 20
215.3307984196
 10
-32.3862950127
 20
214.8013154589
 10
-34.806781895
 20
214.1522208773
 10
-37.1581683676
 20
213.386584314
 10
-39.4292506199
 20
212.5080565535
 10
-41.6092066835
 20
211.5208397233
 10
-43.6876467239
 20
210.4296127879
 10
-45.654665194
 20
209.2396060549
 10
-47.5008892636
 20
207.9564670645
 10
-49.2175235223
 20
206.5863201939
 10
-50.7963816445
 20
205.1357070529
 10
-52.2299459945
 20
203.6115119778
 10
-53.5113788019
 20
202.0210067355
 10
-54.634579904
 20
200.371790918
 10
-55.5941923331
 20
198.6717174374
 10
-56.3856414329
 20
196.928862723
 10
-57.0051609348
 20
195.1515565239
 10
-57.4497966837
 20
193.3482626998
 10
-57.717425264
 20
191.5275792204
 10
-57.8067800771
 20
189.6981785618
  0
LWPOLYLINE
  5
95
330
1F
100
AcDbEntity
  8
0
  6
Continuous
 62
     7
370
    25
100
AcDbPolyline
 90
       87
 70
   128
 43
0.0
 10
-53.3067784082
 20
189.6981785618
 10
-53.2187423478
 20
191.4014855944
 10
-52.955111004
 20
193.0957178198
 10
-52.5172813605
 20
194.7718153321
 10
-51.907596625
 20
196.4208374344
 10
-51.1293108385
 20
198.0339924418
 10
-50.1865702491
 20
199.602667483
 10
-49.0844095867
 20
201.1185179078
 10
-47.8287073593
 20
202.5734225833
 10
-46.4261635016
 20
203.9596329056
 10
-44.8842602592
 20
205.2697429978
 10
-43.2112267982
 20
206.4967791163
 10
-41.4159889143
 20
207.6341996514
 10
-39.5081224661
 20
208.6759100281
 10
-37.4978105347
 20
209.6163670146
 10
-35.3957754369
 20
210.4505489193
 10
-33.2132340218
 20
211.1740151965
 10
-30.9618315469
 20
211.7829064452
 10
-28.6535802107
 20
212.27394441
 10
-26.3007948916
 20
212.64455119
 10
-23.916028421
 20
212.8927151286
 10
-21.5120053427
 20
213.0171398245
 10
-19.1015518313
 20
213.0171398245
 10
-16.697528753
 20
212.8927151286
 10
-14.3127622824
 20
212.64455119
 10
-11.9599769633
 20
212.27394441
 10
-9.6517256271
 20
211.7829064452
 10
-7.4003231521
 20
211.1740151965
 10
-5.217781737
 20
210.4505489193
 10
-3.1157466393
 20
209.6163670146
 10
-1.1054347079
 20
208.6759100281
 10
0.8024317403
 20
207.6341996514
 10
2.5976696242
 20
206.4967791163
 10
4.2707030852
 20
205.2697429978
 10
5.8126063277
 20
203.9596329056
 10
7.2151501853
 20
202.5734225833
 10
8.4708524127
 20
201.1185179078
 10
9.5730130751
 20
199.602667483
 10
10.5157536645
 20
198.0339924418
 10
11.294039451
 20
196.4208374344
 10
11.9037241865
 20
194.7718153321
 10
12.34155383
 20
193.0957178198
 10
12.6051851739
 20
191.4014855944
 10
12.6932212342
 20
189.6981785618
 10
12.6051851739
 20
187.9948715292
 10
12.34155383
 20
186.3006393038
 10
11.9037241865
 20
184.6245566927
 10
11.294039451
 20
182.9755196892
 10
10.5157536645
 20
181.3623646819
 10
9.5730130751
 20
179.7936896407
 10
8.4708524127
 20
178.2778541171
 10
7.2151501853
 20
176.8229494416
 10
5.8126063277
 20
175.4367391192
 10
4.2707030852
 20
174.1266141259
 10
2.5976696242
 20
172.8995780074
 10
0.8024317403
 20
171.7621574723
 10
-1.1054347079
 20
170.7204470955
 10
-3.1157466393
 20
169.7799901091
 10
-5.217781737
 20
168.9458082043
 10
-7.4003231521
 20
168.2223419272
 10
-9.6517256271
 20
167.6134506785
 10
-11.9599769633
 20
167.1224127137
 10
-14.3127622824
 20
166.7518059336
 10
-16.697528753
 20
166.5036419951
 10
-19.1015518313
 20
166.3792172991
 10
-21.5120053427
 20
166.3792172991
 10
-23.916028421
 20
166.5036419951
 10
-26.3007948916
 20
166.7518059336
 10
-28.6535802107
 20
167.1224127137
 10
-30.9618315469
 20
167.6134506785
 10
-33.2132340218
 20
168.2223419272
 10
-35.3957754369
 20
168.9458082043
 10
-37.4978105347
 20
169.7799901091
 10
-39.5081224661
 20
170.7204470955
 10
-41.4159889143
 20
171.7621574723
 10
-43.2112267982
 20
172.8995780074
 10
-44.8842602592
 20
174.1266141259
 10
-46.4261635016
 20
175.4367391192
 10
-47.8287073593
 20
176.8229494416
 10
-49.0844095867
 20
178.2778541171
 10
-50.1865702491
 20
179.7936896407
 10
-51.1293108385
 20
181.3623646819
 10
-51.907596625
 20
182.9755196892
 10
-52.5172813605
 20
184.6245566927
 10
-52.955111004
 20
186.3006393038
 10
-53.2187423478
 20
187.9948715292
 10
-53.3067784082
 20
189.6981785618
  0
LINE
  5
96
330
1F
100
AcDbEntity
  8
0
  6
Continuous
 62
     7
370
    25
100
AcDbLine
 10
-57.8067800771
 20
13.6981795155
 30
0.0
 11
17.1932229031
 21
13.6981795155
 31
0.0
  0
LWPOLYLINE
  5
97
330
1F
100
AcDbEntity
  8
0
  6
Continuous
 62
     1
370
    25
100
AcDbPolyline
 90
       24
 70
   128
 43
0.0
 10
-20.306778587
 20
100.1651699268
 10
-17.7196105752
 20
100.2283508503
 10
-15.1447718773
 20
100.4175955974
 10
-12.5945322025
 20
100.732002648
 10
-10.0810448449
 20
101.1700669848
 10
-7.6162884753
 20
101.7297098958
 10
-5.2120075371
 20
102.4082566225
 10
-2.8796600919
 20
103.2024736129
 10
-0.630359612
 20
104.1085908734
 10
1.5251715858
 20
105.1222721659
 10
3.5766647388
 20
106.2386895143
 10
5.5143428226
 20
107.4525381052
 10
7.3289708425
 20
108.7580139362
 10
9.0119023998
 20
110.1489032232
 10
10.5551169444
 20
111.6185824
 10
11.9512588907
 20
113.1600479209
 10
13.1936804582
 20
114.7659460627
 10
14.2764547099
 20
116.4286250793
 10
15.1944221188
 20
118.1401650034
 10
15.9432129194
 20
119.8924149
 10
16.5192545582
 20
121.6770152175
 10
16.9198052217
 20
123.4854648434
 10
17.1429538358
 20
125.3091434561
 10
17.1932229031
 20
126.6816745125
  0
LWPOLYLINE
  5
98
330
1F
100
AcDbEntity
  8
0
  6
Continuous
 62
     1
370
    25
100
AcDbPolyline
 90
       24
 70
   128
 43
0.0
 10
-57.8067800771
 20
126.6816745125
 10
-57.7565110098
 20
125.3091434561
 10
-57.5333623956
 20
123.4854648434
 10
-57.1328117322
 20
121.6770152175
 10
-56.5567700933
 20
119.8924149
 10
-55.8079792928
 20
118.1401650034
 10
-54.8900118839
 20
116.4286250793
 10
-53.8072376322
 20
114.7659460627
 10
-52.5648160647
 20
113.1600479209
 10
-51.1686741184
 20
111.6185824
 10
-49.6254595737
 20
110.1489032232
 10
-47.9425280164
 20
108.7580139362
 10
-46.1278999965
 20
107.4525381052
 10
-44.1902219127
 20
106.2386895143
 10
-42.1387287598
 20
105.1222721659
 10
-39.983197562
 20
104.1085908734
 10
-37.7338970821
 20
103.2024736129
 10
-35.4015496369
 20
102.4082566225
 10
-32.9972686987
 20
101.7297098958
 10
-30.5325123291
 20
101.1700669848
 10
-28.0190249715
 20
100.732002648
 10
-25.4687852967
 20
100.4175955974
 10
-22.8939465988
 20
100.2283508503
 10
-20.306778587
 20
100.1651699268
  0
LINE
  5
99
330
1F
100
AcDbEntity
  8
0
  6
Continuous
 62
     1
370
    25
100
AcDbLine
 10
-20.306778587
 20
100.1651699268
 30
0.0
 11
17.1932229031
 21
100.1651699268
 31
0.0
  0
LINE
  5
9A
330
1F
100
AcDbEntity
  8
0
  6
Continuous
 62
     1
370
    25
100
AcDbLine
 10
-57.8067800771
 20
100.1651699268
 30
0.0
 11
-20.306778587
 21
100.1651699268
 31
0.0
  0
LINE
  5
9B
330
1F
100
AcDbEntity
  8
0
  6
Continuous
 62
     7
370
    25
100
AcDbLine
 10
199.5163990904
 20
335.2255837536
 30
0.0
 11
136.4998941098
 21
335.2255837536
 31
0.0
  0
LINE
  5
9C
330
1F
100
AcDbEntity
  8
0
  6
Continuous
 62
     7
370
    25
100
AcDbLine
 10
136.4998941098
 20
260.2255807734
 30
0.0
 11
199.5163990904
 21
260.2255807734
 31
0.0
  0
LINE
  5
9D
330
1F
100
AcDbEntity
  8
0
  6
Continuous
 62
     7
370
    25
100
AcDbLine
 10
136.4998941098
 20
335.2255837536
 30
0.0
 11
125.5163981367
 21
335.2255837536
 31
0.0
  0
LINE
  5
9E
330
1F
100
AcDbEntity
  8
0
  6
Continuous
 62
     7
370
    25
100
AcDbLine
 10
125.5163981367
 20
260.2255807734
 30
0.0
 11
136.4998941098
 21
260.2255807734
 31
0.0
  0
CIRCLE
  5
9F
330
1F
100
AcDbEntity
  8
0
  6
Continuous
 62
     7
370
    25
100
AcDbCircle
 10
125.5163981367
 20
297.7255822635
 30
0.0
 40
33.0
  0
CIRCLE
  5
A0
330
1F
100
AcDbEntity
  8
0
  6
Continuous
 62
     7
370
    25
100
AcDbCircle
 10
125.5163981367
 20
297.7255822635
 30
0.0
 40
37.5
  0
LWPOLYLINE
  5
A1
330
1F
100
AcDbEntity
  8
0
  6
Continuous
 62
     7
370
    25
100
AcDbPolyline
 90
       47
 70
   128
 43
0.0
 10
199.5163990904
 20
335.2255837536
 10
201.345799749
 20
335.1362289405
 10
203.1664906789
 20
334.8686003602
 10
204.9697770525
 20
334.4239646113
 10
206.7470832516
 20
333.8044451094
 10
208.4899305154
 20
333.0129960096
 10
210.1900114466
 20
332.0533835805
 10
211.8392347146
 20
330.9301824785
 10
213.4297250558
 20
329.648749671
 10
214.9539201308
 20
328.215185321
 10
216.4045407225
 20
326.6363271988
 10
217.7746875931
 20
324.9196929402
 10
219.0578265835
 20
323.0734688706
 10
220.2478333164
 20
321.1064504004
 10
221.3390528012
 20
319.0280103601
 10
222.3262770821
 20
316.8480542964
 10
223.204797392
 20
314.5769720442
 10
223.9704339553
 20
312.2255855716
 10
224.6195359875
 20
309.8050986892
 10
225.1490114976
 20
307.3270476899
 10
225.5563347388
 20
304.8032422095
 10
225.8395685602
 20
302.2457079506
 10
225.9973569561
 20
299.6666330156
 10
226.0289548684
 20
297.0783082429
 10
225.934205835
 20
294.4930680106
 10
225.7135643412
 20
291.9232321448
 10
225.3680809189
 20
289.381047479
 10
224.8994021464
 20
286.8786274931
 10
224.309763198
 20
284.4278987042
 10
223.6019654919
 20
282.0405398971
 10
222.7793990422
 20
279.727926246
 10
221.8459679533
 20
277.501081816
 10
220.8061276723
 20
275.3706143713
 10
219.6648328353
 20
273.3466790534
 10
218.4275223661
 20
271.4389206386
 10
217.1000896741
 20
269.6564288354
 10
215.6888677527
 20
268.007701031
 10
214.2005695749
 20
266.5005919999
 10
212.6423029948
 20
265.1422822392
 10
211.02148134
 20
263.9392481661
 10
209.3458308626
 20
262.897224865
 10
207.623338585
 20
262.0211706973
 10
205.862215047
 20
261.3152654386
 10
204.0708496023
 20
260.7828693009
 10
202.2577806164
 20
260.4265266574
 10
200.4316433121
 20
260.2479287899
 10
199.5163990904
 20
260.2255807734
  0
LWPOLYLINE
  5
A2
330
1F
100
AcDbEntity
  8
0
  6
Continuous
 62
     1
370
    25
100
AcDbPolyline
 90
       24
 70
   128
 43
0.0
 10
163.0163996268
 20
297.7255822635
 10
162.9532149781
 20
295.1384142517
 10
162.7639739562
 20
292.5635755538
 10
162.4495669056
 20
290.013335879
 10
162.0115025688
 20
287.4998485214
 10
161.4518633832
 20
285.0350921518
 10
160.7733129312
 20
282.6308112136
 10
159.9790922154
 20
280.2984637684
 10
159.0729824055
 20
278.0491632885
 10
158.059301113
 20
275.8936320907
 10
156.942876314
 20
273.8421389378
 10
155.7290351738
 20
271.904460854
 10
154.4235556174
 20
270.0898328341
 10
153.0326644678
 20
268.4069012768
 10
151.562985291
 20
266.8636867321
 10
150.0215234954
 20
265.4675447858
 10
148.4156253536
 20
264.2251232183
 10
146.7529444743
 20
263.1423489666
 10
145.0414026875
 20
262.2243815578
 10
143.2891546537
 20
261.4755907572
 10
141.5045543362
 20
260.8995491183
 10
139.6961056415
 20
260.4989984549
 10
137.8724242349
 20
260.2758498407
 10
136.4998941098
 20
260.2255807734
  0
LWPOLYLINE
  5
A3
330
1F
100
AcDbEntity
  8
0
  6
Continuous
 62
     1
370
    25
100
AcDbPolyline
 90
       24
 70
   128
 43
0.0
 10
136.4998941098
 20
335.2255837536
 10
137.8724242349
 20
335.1753146863
 10
139.6961056415
 20
334.9521660722
 10
141.5045543362
 20
334.5516154087
 10
143.2891546537
 20
333.9755737699
 10
145.0414026875
 20
333.2267829693
 10
146.7529444743
 20
332.3088155604
 10
148.4156253536
 20
331.2260413087
 10
150.0215234954
 20
329.9836197413
 10
151.562985291
 20
328.5874777949
 10
153.0326644678
 20
327.0442632503
 10
154.4235556174
 20
325.361331693
 10
155.7290351738
 20
323.5467036731
 10
156.942876314
 20
321.6090255893
 10
158.059301113
 20
319.5575324363
 10
159.0729824055
 20
317.4020012385
 10
159.9790922154
 20
315.1527007586
 10
160.7733129312
 20
312.8203533134
 10
161.4518633832
 20
310.4160723752
 10
162.0115025688
 20
307.9513160056
 10
162.4495669056
 20
305.437828648
 10
162.7639739562
 20
302.8875889732
 10
162.9532149781
 20
300.3127502753
 10
163.0163996268
 20
297.7255822635
  0
LWPOLYLINE
  5
A4
330
1F
100
AcDbEntity
  8
0
  6
Continuous
 62
     1
370
    25
100
AcDbPolyline
 90
       40
 70
   128
 43
0.0
 10
131.9503810045
 20
330.0922901845
 10
131.4262643244
 20
329.936085037
 10
129.7772384968
 20
329.3264003015
 10
128.1640811611
 20
328.548114515
 10
126.5953989022
 20
327.6053739256
 10
125.0795614286
 20
326.5032132632
 10
123.6246563748
 20
325.2475110358
 10
122.2384462852
 20
323.8449671782
 10
120.9283273455
 20
322.3030639357
 10
119.7012888987
 20
320.6300304747
 10
118.5638790738
 20
318.8347925908
 10
117.5221654374
 20
316.9269261426
 10
116.581705657
 20
314.9166142113
 10
115.7475181643
 20
312.8145791135
 10
115.0240537498
 20
310.6320376984
 10
114.4151727457
 20
308.3806352234
 10
113.9241226737
 20
306.0723838872
 10
113.5535242755
 20
303.7195985681
 10
113.3053547491
 20
301.3348320975
 10
113.1809375037
 20
298.9308090192
 10
113.1809375037
 20
296.5203555078
 10
113.3053547491
 20
294.1163324295
 10
113.5535242755
 20
291.7315659589
 10
113.9241226737
 20
289.3787806398
 10
114.4151727457
 20
287.0705293036
 10
115.0240537498
 20
284.8191268287
 10
115.7475181643
 20
282.6365854136
 10
116.581705657
 20
280.5345503158
 10
117.5221654374
 20
278.5242383844
 10
118.5638790738
 20
276.6163719363
 10
119.7012888987
 20
274.8211340523
 10
120.9283273455
 20
273.1481005914
 10
122.2384462852
 20
271.6061973489
 10
123.6246563748
 20
270.2036534912
 10
125.0795614286
 20
268.9479512638
 10
126.5953989022
 20
267.8457906014
 10
128.1640811611
 20
266.903050012
 10
129.7772384968
 20
266.1247642255
 10
131.4262643244
 20
265.51507949
 10
131.9503810045
 20
265.3588743425
  0
INSERT
  5
B0
330
1F
100
AcDbEntity
  8
FORMAT
 62
     7
100
AcDbBlockReference
  2
SW_CENTERMARKSYMBOL_0
 10
125.5163981367
 20
297.7255822635
 30
0.0
  0
LINE
  5
B1
330
1F
100
AcDbEntity
  8
0
  6
Continuous
 62
     7
370
    25
100
AcDbLine
 10
267.8302927735
 20
100.1651699268
 30
0.0
 11
267.8302927735
 21
13.6981795155
 31
0.0
  0
LINE
  5
B2
330
1F
100
AcDbEntity
  8
0
  6
Continuous
 62
     7
370
    25
100
AcDbLine
 10
342.8302957537
 20
13.6981795155
 30
0.0
 11
342.8302957537
 21
100.1651699268
 31
0.0
  0
LINE
  5
B3
330
1F
100
AcDbEntity
  8
0
  6
Continuous
 62
     7
370
    25
100
AcDbLine
 10
342.8302957537
 20
100.1651699268
 30
0.0
 11
342.8302957537
 21
126.6816745125
 31
0.0
  0
LINE
  5
B4
330
1F
100
AcDbEntity
  8
0
  6
Continuous
 62
     7
370
    25
100
AcDbLine
 10
267.8302927735
 20
126.6816745125
 30
0.0
 11
267.8302927735
 21
100.1651699268
 31
0.0
  0
LINE
  5
B5
330
1F
100
AcDbEntity
  8
0
  6
Continuous
 62
     7
370
    25
100
AcDbLine
 10
267.8302927735
 20
189.6981785618
 30
0.0
 11
267.8302927735
 21
126.6816745125
 31
0.0
  0
LINE
  5
B6
330
1F
100
AcDbEntity
  8
0
  6
Continuous
 62
     7
370
    25
100
AcDbLine
 10
342.8302957537
 20
126.6816745125
 30
0.0
 11
342.8302957537
 21
189.6981785618
 31
0.0
  0
LINE
  5
B7
330
1F
100
AcDbEntity
  8
0
  6
Continuous
 62
     7
370
    25
100
AcDbLine
 10
267.8302927735
 20
13.6981795155
 30
0.0
 11
342.8302957537
 21
13.6981795155
 31
0.0
  0
LWPOLYLINE
  5
B8
330
1F
100
AcDbEntity
  8
0
  6
Continuous
 62
     7
370
    25
100
AcDbPolyline
 90
       48
 70
   128
 43
0.0
 10
267.8302927735
 20
189.6981785618
 10
267.85264079
 20
190.6134227835
 10
268.0312386575
 20
192.4395600878
 10
268.387581301
 20
194.2526290738
 10
268.9199774387
 20
196.0439870678
 10
269.6258826974
 20
197.805125507
 10
270.5019368651
 20
199.5276103341
 10
271.5439601662
 20
201.2032608115
 10
272.7469942393
 20
202.8240750157
 10
274.105304
 20
204.3823490464
 10
275.6124130311
 20
205.8706472241
 10
277.2611408355
 20
207.2818765961
 10
279.0436326387
 20
208.6093018376
 10
280.9513910535
 20
209.8466197573
 10
282.9753263714
 20
210.9879145943
 10
285.1057938161
 20
212.0277474247
 10
287.3326382461
 20
212.9611859643
 10
289.6452518972
 20
213.7837449633
 10
292.0326107043
 20
214.4915352189
 10
294.4833394932
 20
215.0811741673
 10
296.9857594791
 20
215.5498603903
 10
299.5279441449
 20
215.8953438126
 10
302.0977800107
 20
216.1159853064
 10
304.683020243
 20
216.2107268893
 10
307.2713450157
 20
216.1791364275
 10
309.8504199507
 20
216.0213480317
 10
312.4079542096
 20
215.7381216609
 10
314.93175969
 20
215.3307984196
 10
317.4098106893
 20
214.8013154589
 10
319.8302975717
 20
214.1522208773
 10
322.1816840443
 20
213.386584314
 10
324.4527662965
 20
212.5080565535
 10
326.6327223601
 20
211.5208397233
 10
328.7111624005
 20
210.4296127879
 10
330.6781808707
 20
209.2396060549
 10
332.5244049403
 20
207.9564670645
 10
334.2410391989
 20
206.5863201939
 10
335.8198973211
 20
205.1357070529
 10
337.2534616711
 20
203.6115119778
 10
338.5348944786
 20
202.0210067355
 10
339.6580955806
 20
200.371790918
 10
340.6177080097
 20
198.6717174374
 10
341.4091571095
 20
196.928862723
 10
342.0286766114
 20
195.1515565239
 10
342.4733123603
 20
193.3482626998
 10
342.7409409406
 20
191.5275792204
 10
342.8302957537
 20
189.6981785618
 10
342.8302957537
 20
189.6981785618
  0
LINE
  5
B9
330
1F
100
AcDbEntity
  8
0
  6
Continuous
 62
     1
370
    25
100
AcDbLine
 10
267.8302927735
 20
100.1651699268
 30
0.0
 11
342.8302957537
 21
100.1651699268
 31
0.0
  0
LWPOLYLINE
  5
BA
330
1F
100
AcDbEntity
  8
0
  6
Continuous
 62
     1
370
    25
100
AcDbPolyline
 90
       48
 70
   128
 43
0.0
 10
267.8302927735
 20
126.6816745125
 10
267.8358807089
 20
127.1393636786
 10
267.9698756757
 20
128.9674083315
 10
268.2819097164
 20
130.7845527851
 10
268.7704964402
 20
132.5821543657
 10
269.4333075407
 20
134.3516300046
 10
270.2671839717
 20
136.0845605456
 10
271.2681545737
 20
137.7726758443
 10
272.4314435246
 20
139.4079367243
 10
273.7515113177
 20
140.9825573288
 10
275.2220659378
 20
142.4890200221
 10
276.8361001136
 20
143.9201573454
 10
278.5859229835
 20
145.2691594683
 10
280.4631954851
 20
146.5295592867
 10
282.4589694711
 20
147.6953963362
 10
284.563736138
 20
148.7610826813
 10
286.7674651417
 20
149.7215519272
 10
289.0596548888
 20
150.5722145163
 10
291.4293800342
 20
151.309047135
 10
293.8653510856
 20
151.928503307
 10
296.3559572446
 20
152.4276624047
 10
298.8893297362
 20
152.8041104399
 10
301.4533967572
 20
153.0560890757
 10
304.0359390062
 20
153.1823764168
 10
306.624649521
 20
153.1823764168
 10
309.20719177
 20
153.0560890757
 10
311.771258791
 20
152.8041104399
 10
314.3046312826
 20
152.4276624047
 10
316.7952374416
 20
151.928503307
 10
319.2312084931
 20
151.309047135
 10
321.6009336385
 20
150.5722145163
 10
323.8931233856
 20
149.7215519272
 10
326.0968523892
 20
148.7610826813
 10
328.2016190561
 20
147.6953963362
 10
330.1973930421
 20
146.5295592867
 10
332.0746655437
 20
145.2691594683
 10
333.8244884136
 20
143.9201573454
 10
335.4385225895
 20
142.4890200221
 10
336.9090772095
 20
140.9825573288
 10
338.2291450026
 20
139.4079367243
 10
339.3924339535
 20
137.7726758443
 10
340.3934045556
 20
136.0845605456
 10
341.2272809866
 20
134.3516300046
 10
341.890092087
 20
132.5821543657
 10
342.3786788108
 20
130.7845527851
 10
342.6907128515
 20
128.9674083315
 10
342.8247078183
 20
127.1393636786
 10
342.8302957537
 20
126.6816745125
  0
LINE
  5
BB
330
1F
100
AcDbEntity
  8
0
  6
Continuous
 62
     7
370
    25
100
AcDbLine
 10
199.5163990904
 20
-86.0806460328
 30
0.0
 11
136.4998941098
 21
-86.0806460328
 31
0.0
  0
LINE
  5
BC
330
1F
100
AcDbEntity
  8
0
  6
Continuous
 62
     7
370
    25
100
AcDbLine
 10
136.4998941098
 20
-161.080649013
 30
0.0
 11
199.5163990904
 21
-161.080649013
 31
0.0
  0
LINE
  5
BD
330
1F
100
AcDbEntity
  8
0
  6
Continuous
 62
     7
370
    25
100
AcDbLine
 10
125.5163981367
 20
-161.080649013
 30
0.0
 11
136.4998941098
 21
-161.080649013
 31
0.0
  0
LINE
  5
BE
330
1F
100
AcDbEntity
  8
0
  6
Continuous
 62
     7
370
    25
100
AcDbLine
 10
136.4998941098
 20
-86.0806460328
 30
0.0
 11
125.5163981367
 21
-86.0806460328
 31
0.0
  0
LWPOLYLINE
  5
BF
330
1F
100
AcDbEntity
  8
0
  6
Continuous
 62
     7
370
    25
100
AcDbPolyline
 90
       92
 70
   128
 43
0.0
 10
199.5163990904
 20
-161.080649013
 10
201.345799749
 20
-160.9912941999
 10
203.1664906789
 20
-160.7236656196
 10
204.9697770525
 20
-160.2790298707
 10
206.7470832516
 20
-159.6595103688
 10
208.4899305154
 20
-158.868061269
 10
210.1900114466
 20
-157.9084488399
 10
211.8392347146
 20
-156.7852477379
 10
213.4297250558
 20
-155.5038149304
 10
214.9539201308
 20
-154.0702505804
 10
216.4045407225
 20
-152.4913924582
 10
217.7746875931
 20
-150.7747581996
 10
219.0578265835
 20
-148.92853413
 10
220.2478333164
 20
-146.9615156598
 10
221.3390528012
 20
-144.8830756194
 10
222.3262770821
 20
-142.7031195558
 10
223.204797392
 20
-140.4320373036
 10
223.9704339553
 20
-138.080650831
 10
224.6195359875
 20
-135.6601639486
 10
225.1490114976
 20
-133.1821129493
 10
225.5563347388
 20
-130.6583074688
 10
225.8395685602
 20
-128.10077321
 10
225.9973569561
 20
-125.521698275
 10
226.0289548684
 20
-122.9333735023
 10
225.934205835
 20
-120.34813327
 10
225.7135643412
 20
-117.7782974042
 10
225.3680809189
 20
-115.2361127384
 10
224.8994021464
 20
-112.7336927525
 10
224.309763198
 20
-110.2829639636
 10
223.6019654919
 20
-107.8956051565
 10
222.7793990422
 20
-105.5829915054
 10
221.8459679533
 20
-103.3561470754
 10
220.8061276723
 20
-101.2256796307
 10
219.6648328353
 20
-99.2017443128
 10
218.4275223661
 20
-97.293985898
 10
217.1000896741
 20
-95.5114940948
 10
215.6888677527
 20
-93.8627662904
 10
214.2005695749
 20
-92.3556572593
 10
212.6423029948
 20
-90.9973474986
 10
211.02148134
 20
-89.7943134255
 10
209.3458308626
 20
-88.7522901244
 10
207.623338585
 20
-87.8762359567
 10
205.862215047
 20
-87.170330698
 10
204.0708496023
 20
-86.6379345603
 10
202.2577806164
 20
-86.2815919168
 10
200.4316433121
 20
-86.1029940493
 10
198.6011474181
 20
-86.1029940493
 10
196.7750175644
 20
-86.2815919168
 10
194.9619485785
 20
-86.6379345603
 10
193.1705831338
 20
-87.170330698
 10
191.4094595958
 20
-87.8762359567
 10
189.6869673182
 20
-88.7522901244
 10
188.0113168408
 20
-89.7943134255
 10
186.390495186
 20
-90.9973474986
 10
184.8322248806
 20
-92.3556572593
 10
183.3439304281
 20
-93.8627662904
 10
181.9327047814
 20
-95.5114940948
 10
180.6052720893
 20
-97.293985898
 10
179.3679616202
 20
-99.2017443128
 10
178.2266667832
 20
-101.2256796307
 10
177.1868265022
 20
-103.3561470754
 10
176.2533991386
 20
-105.5829915054
 10
175.4308289636
 20
-107.8956051565
 10
174.7230349828
 20
-110.2829639636
 10
174.1333960343
 20
-112.7336927525
 10
173.6647172619
 20
-115.2361127384
 10
173.3192338396
 20
-117.7782974042
 10
173.0985923458
 20
-120.34813327
 10
173.0038433124
 20
-122.9333735023
 10
173.0354412247
 20
-125.521698275
 10
173.1932296206
 20
-128.10077321
 10
173.4764597167
 20
-130.6583074688
 10
173.8837829579
 20
-133.1821129493
 10
174.413258468
 20
-135.6601639486
 10
175.0623605002
 20
-138.080650831
 10
175.8279970635
 20
-140.4320373036
 10
176.7065210987
 20
-142.7031195558
 10
177.6937416543
 20
-144.8830756194
 10
178.7849611391
 20
-146.9615156598
 10
179.9749715973
 20
-148.92853413
 10
181.2581068624
 20
-150.7747581996
 10
182.628253733
 20
-152.4913924582
 10
184.07887805
 20
-154.0702505804
 10
185.6030693997
 20
-155.5038149304
 10
187.1935634662
 20
-156.7852477379
 10
188.8427792836
 20
-157.9084488399
 10
190.5428676654
 20
-158.868061269
 10
192.2857149292
 20
-159.6595103688
 10
194.0630136777
 20
-160.2790298707
 10
195.8663075019
 20
-160.7236656196
 10
197.6869909812
 20
-160.9912941999
 10
199.5163990904
 20
-161.080649013
  0
LWPOLYLINE
  5
C0
330
1F
100
AcDbEntity
  8
0
  6
Continuous
 62
     7
370
    25
100
AcDbPolyline
 90
       87
 70
   128
 43
0.0
 10
199.5163990904
 20
-156.5806473441
 10
197.8130846072
 20
-156.4926112838
 10
196.118867283
 20
-156.2289799399
 10
194.4427697707
 20
-155.7911502964
 10
192.7937402178
 20
-155.1814655609
 10
191.1805852104
 20
-154.4031797744
 10
189.6119027186
 20
-153.460439185
 10
188.096067195
 20
-152.3582785226
 10
186.6411625196
 20
-151.1025762952
 10
185.2549521972
 20
-149.7000324375
 10
183.9448309291
 20
-148.1581291951
 10
182.7177948106
 20
-146.4850957341
 10
181.5803817261
 20
-144.6898578502
 10
180.5386676241
 20
-142.781991402
 10
179.5982106377
 20
-140.7716794706
 10
178.7640212823
 20
-138.6696443729
 10
178.0405587305
 20
-136.4871029578
 10
177.4316749323
 20
-134.2357004828
 10
176.9406257917
 20
-131.9274491466
 10
176.5700301875
 20
-129.5746638275
 10
176.3218587984
 20
-127.1898973569
 10
176.197441553
 20
-124.7858742786
 10
176.197441553
 20
-122.3754207672
 10
176.3218587984
 20
-119.9713976889
 10
176.5700301875
 20
-117.5866312183
 10
176.9406257917
 20
-115.2338458992
 10
177.4316749323
 20
-112.925594563
 10
178.0405587305
 20
-110.6741920881
 10
178.7640212823
 20
-108.491650673
 10
179.5982106377
 20
-106.3896155752
 10
180.5386676241
 20
-104.3793036438
 10
181.5803817261
 20
-102.4714371956
 10
182.7177948106
 20
-100.6761993117
 10
183.9448309291
 20
-99.0031658507
 10
185.2549521972
 20
-97.4612626083
 10
186.6411625196
 20
-96.0587187506
 10
188.096067195
 20
-94.8030165232
 10
189.6119027186
 20
-93.7008558608
 10
191.1805852104
 20
-92.7581152714
 10
192.7937402178
 20
-91.9798294849
 10
194.4427697707
 20
-91.3701447494
 10
196.118867283
 20
-90.9323151059
 10
197.8130846072
 20
-90.6686837621
 10
199.5163990904
 20
-90.5806477017
 10
201.219706123
 20
-90.6686837621
 10
202.9139308978
 20
-90.9323151059
 10
204.5900284101
 20
-91.3701447494
 10
206.2390505124
 20
-91.9798294849
 10
207.8522129704
 20
-92.7581152714
 10
209.4208954621
 20
-93.7008558608
 10
210.9367309857
 20
-94.8030165232
 10
212.3916356612
 20
-96.0587187506
 10
213.7778459836
 20
-97.4612626083
 10
215.0879635264
 20
-99.0031658507
 10
216.3149996449
 20
-100.6761993117
 10
217.4524127294
 20
-102.4714371956
 10
218.4941305567
 20
-104.3793036438
 10
219.4345875431
 20
-106.3896155752
 10
220.2687768985
 20
-108.491650673
 10
220.992235725
 20
-110.6741920881
 10
221.6011195232
 20
-112.925594563
 10
222.0921723891
 20
-115.2338458992
 10
222.462764268
 20
-117.5866312183
 10
222.7109356571
 20
-119.9713976889
 10
222.8353529025
 20
-122.3754207672
 10
222.8353529025
 20
-124.7858742786
 10
222.7109356571
 20
-127.1898973569
 10
222.462764268
 20
-129.5746638275
 10
222.0921723891
 20
-131.9274491466
 10
221.6011195232
 20
-134.2357004828
 10
220.992235725
 20
-136.4871029578
 10
220.2687768985
 20
-138.6696443729
 10
219.4345875431
 20
-140.7716794706
 10
218.4941305567
 20
-142.781991402
 10
217.4524127294
 20
-144.6898578502
 10
216.3149996449
 20
-146.4850957341
 10
215.0879635264
 20
-148.1581291951
 10
213.7778459836
 20
-149.7000324375
 10
212.3916356612
 20
-151.1025762952
 10
210.9367309857
 20
-152.3582785226
 10
209.4208954621
 20
-153.460439185
 10
207.8522129704
 20
-154.4031797744
 10
206.2390505124
 20
-155.1814655609
 10
204.5900284101
 20
-155.7911502964
 10
202.9139308978
 20
-156.2289799399
 10
201.219706123
 20
-156.4926112838
 10
199.5163990904
 20
-156.5806473441
  0
ARC
  5
C1
330
1F
100
AcDbEntity
  8
0
  6
Continuous
 62
     7
370
    25
100
AcDbCircle
 10
125.5163981367
 20
-123.5806475229
 30
0.0
 40
37.50000000000001
100
AcDbArc
 50
90.0
 51
270.0
  0
LWPOLYLINE
  5
C2
330
1F
100
AcDbEntity
  8
0
  6
Continuous
 62
     1
370
    25
100
AcDbPolyline
 90
       48
 70
   128
 43
0.0
 10
136.4998941098
 20
-86.0806460328
 10
136.0422021497
 20
-86.0862339682
 10
134.2141612221
 20
-86.220228935
 10
132.3970125776
 20
-86.5322629757
 10
130.5994165849
 20
-87.0208496995
 10
128.8299388506
 20
-87.6836608
 10
127.097011802
 20
-88.517537231
 10
125.4088939057
 20
-89.518507833
 10
123.7736296861
 20
-90.6817967839
 10
122.1990117591
 20
-92.001864577
 10
120.6925444093
 20
-93.4724191971
 10
119.2614056889
 20
-95.0864533729
 10
117.9124166046
 20
-96.8362762428
 10
116.6520056103
 20
-98.7135487444
 10
115.486177874
 20
-100.7093227304
 10
114.4204915289
 20
-102.8140893973
 10
113.460022283
 20
-105.017818401
 10
112.6093494494
 20
-107.3100081481
 10
111.8725252126
 20
-109.6797332935
 10
111.25306159
 20
-112.1157043449
 10
110.7539108742
 20
-114.6063105039
 10
110.3774516631
 20
-117.1396829955
 10
110.1254776839
 20
-119.7037500165
 10
109.9991894115
 20
-122.2862922655
 10
109.9991894115
 20
-124.8750027803
 10
110.1254776839
 20
-127.4575450293
 10
110.3774516631
 20
-130.0216120503
 10
110.7539108742
 20
-132.5549845419
 10
111.25306159
 20
-135.0455907009
 10
111.8725252126
 20
-137.4815617524
 10
112.6093494494
 20
-139.8512868978
 10
113.460022283
 20
-142.1434766449
 10
114.4204915289
 20
-144.3472056485
 10
115.486177874
 20
-146.4519723154
 10
116.6520056103
 20
-148.4477463014
 10
117.9124166046
 20
-150.325018803
 10
119.2614056889
 20
-152.0748416729
 10
120.6925444093
 20
-153.6888758488
 10
122.1990117591
 20
-155.1594304688
 10
123.7736296861
 20
-156.4794982619
 10
125.4088939057
 20
-157.6427872128
 10
127.097011802
 20
-158.6437578149
 10
128.8299388506
 20
-159.4776342459
 10
130.5994165849
 20
-160.1404453463
 10
132.3970125776
 20
-160.6290320701
 10
134.2141612221
 20
-160.9410661108
 10
136.0422021497
 20
-161.0750610776
 10
136.4998941098
 20
-161.080649013
  0
INSERT
  5
CE
330
1F
100
AcDbEntity
  8
FORMAT
 62
     7
100
AcDbBlockReference
  2
SW_CENTERMARKSYMBOL_1
 10
125.5163981367
 20
-123.5806475229
 30
0.0
  0
LINE
  5
CF
330
1F
100
AcDbEntity
  8
0
  6
Continuous
 62
     7
370
    25
100
AcDbLine
 10
267.3570746813
 20
-131.6397406819
 30
0.0
 11
267.3570746813
 21
-202.2435672337
 31
0.0
  0
LINE
  5
D0
330
1F
100
AcDbEntity
  8
0
  6
Continuous
 62
     7
370
    25
100
AcDbLine
 10
342.3570755051
 20
-202.2435672337
 30
0.0
 11
342.3570755051
 21
-131.6397406819
 31
0.0
  0
LINE
  5
D1
330
1F
100
AcDbEntity
  8
0
  6
Continuous
 62
     7
370
    25
100
AcDbLine
 10
324.7070237516
 20
-9.5752868981
 30
0.0
 11
280.1476270702
 21
-86.7544264388
 31
0.0
  0
LINE
  5
D2
330
1F
100
AcDbEntity
  8
0
  6
Continuous
 62
     7
370
    25
100
AcDbLine
 10
345.099531425
 20
-124.254423731
 30
0.0
 11
389.658928765
 21
-47.0752838102
 31
0.0
  0
SPLINE
  5
D3
330
1F
100
AcDbEntity
  8
0
  6
Continuous
 62
     7
370
    25
100
AcDbSpline
210
0.0
220
0.0
230
1.0
 70
     8
 71
     3
 72
    22
 73
    18
 74
     0
 42
0.000000001
 43
0.00000001
 40
0.0
 40
0.0
 40
0.0
 40
0.0
 40
0.0418234499286833
 40
0.1137588126996742
 40
0.18580884474555
 40
0.2580326536805082
 40
0.3304917404018805
 40
0.4032429568519735
 40
0.4763335779321812
 40
0.5497976006438592
 40
0.6236499286341612
 40
0.6978796123796885
 40
0.7724431586470055
 40
0.8472587600221646
 40
0.9221722574437506
 40
0.9913866117668416
 40
1.0
 40
1.0
 40
1.0
 40
1.0
 10
280.14762707021
 20
-86.75442643879224
 30
0.0
 10
279.814589319145
 20
-87.33921694084779
 30
0.0
 10
278.9087343691128
 20
-88.92983352808113
 30
0.0
 10
277.5137709178007
 20
-91.57377256422065
 30
0.0
 10
275.9929768199318
 20
-94.69615116489591
 30
0.0
 10
274.5817613950877
 20
-97.87010431547081
 30
0.0
 10
273.2814481628636
 20
-101.0913369888654
 30
0.0
 10
272.0961534758129
 20
-104.3569909133075
 30
0.0
 10
271.0298171082146
 20
-107.663600749095
 30
0.0
 10
270.087070449374
 20
-111.0073569356857
 30
0.0
 10
269.2730098874718
 20
-114.3837126658816
 30
0.0
 10
268.5931409170377
 20
-117.7870978233627
 30
0.0
 10
268.0533537452645
 20
-121.210572116719
 30
0.0
 10
267.6593180054834
 20
-124.6451208285185
 30
0.0
 10
267.423480172217
 20
-127.9936007806738
 30
0.0
 10
267.3593675386562
 20
-130.3239642012833
 30
0.0
 10
267.3573031520833
 20
-131.5086307166632
 30
0.0
 10
267.3570746813295
 20
-131.6397406819358
 30
0.0
  0
SPLINE
  5
D4
330
1F
100
AcDbEntity
  8
0
  6
Continuous
 62
     7
370
    25
100
AcDbSpline
210
0.0
220
0.0
230
1.0
 70
     8
 71
     3
 72
    19
 73
    15
 74
     0
 42
0.000000001
 43
0.00000001
 40
0.0
 40
0.0
 40
0.0
 40
0.0
 40
0.068167125294776
 40
0.1582719870832854
 40
0.2456227211605377
 40
0.3311597814401056
 40
0.415697992960574
 40
0.4999067671548149
 40
0.5842970194596355
 40
0.6691513125487822
 40
0.7546442382466568
 40
0.8408634189055875
 40
0.9277713928669515
 40
1.0
 40
1.0
 40
1.0
 40
1.0
 10
342.3573731672191
 20
-131.6615672626877
 30
0.0
 10
342.3573227342791
 20
-131.6602598245998
 30
0.0
 10
342.3572056379281
 20
-131.6572241850114
 30
0.0
 10
342.3709503977479
 20
-131.4830360194641
 30
0.0
 10
342.4127066963302
 20
-131.1706329596856
 30
0.0
 10
342.492693301123
 20
-130.7244756199497
 30
0.0
 10
342.6198511254948
 20
-130.1603960407011
 30
0.0
 10
342.8018524526204
 20
-129.4882045999528
 30
0.0
 10
343.044331304411
 20
-128.7216145474921
 30
0.0
 10
343.3508285643509
 20
-127.8761837992024
 30
0.0
 10
343.72181525708
 20
-126.9694388470003
 30
0.0
 10
344.1568654409069
 20
-126.0214060026596
 30
0.0
 10
344.6173177528957
 20
-125.1067197400776
 30
0.0
 10
344.9509476984741
 20
-124.5215412800876
 30
0.0
 10
345.1023750202204
 20
-124.2559415996202
 30
0.0
  0
LWPOLYLINE
  5
D5
330
1F
100
AcDbEntity
  8
0
  6
Continuous
 62
     7
370
    25
100
AcDbPolyline
 90
       92
 70
   128
 43
0.0
 10
278.340569745
 20
-186.9359145287
 10
280.2331571845
 20
-185.9162970501
 10
282.2430850723
 20
-184.9744845223
 10
284.3607817931
 20
-184.1149684596
 10
286.576152189
 20
-183.3418430991
 10
288.8786371574
 20
-182.6587922848
 10
291.2572689686
 20
-182.0690727399
 10
293.7007107791
 20
-181.5754942985
 10
296.1973162291
 20
-181.180406789
 10
298.7351900293
 20
-180.8856969935
 10
301.3022360341
 20
-180.692765457
 10
303.8862250719
 20
-180.602534471
 10
306.4748384094
 20
-180.6154321066
 10
309.0557428248
 20
-180.7313975367
 10
311.616639341
 20
-180.9498787549
 10
314.145322494
 20
-181.2698348566
 10
316.6297448706
 20
-181.6897383203
 10
319.0580632064
 20
-182.2075909743
 10
321.4187068744
 20
-182.8209255174
 10
323.700428593
 20
-183.5268165443
 10
325.8923515117
 20
-184.3219016444
 10
327.9840334195
 20
-185.2023910965
 10
329.9655046936
 20
-186.1640897762
 10
331.8273210236
 20
-187.2024154271
 10
333.5606131732
 20
-188.3124182644
 10
335.1571201544
 20
-189.4888092488
 10
336.609233185
 20
-190.7259824226
 10
337.9100331025
 20
-192.0180425899
 10
339.053320369
 20
-193.3588317628
 10
340.0336448702
 20
-194.7419615703
 10
340.8463401595
 20
-196.1608391105
 10
341.4875280684
 20
-197.6087030659
 10
341.9541569017
 20
-199.0786548781
 10
342.2440007789
 20
-200.5636887808
 10
342.3556780737
 20
-202.056728296
 10
342.2886579991
 20
-203.5506589289
 10
342.0432592907
 20
-205.0383593415
 10
341.6206515236
 20
-206.5127416509
 10
341.0228498439
 20
-207.9667803218
 10
340.2527004811
 20
-209.3935448615
 10
339.3138735036
 20
-210.7862344151
 10
338.2108456971
 20
-212.1382165429
 10
336.9488715881
 20
-213.4430454683
 10
335.5339676392
 20
-214.6945046573
 10
333.9728707609
 20
-215.8866277273
 10
332.2730253872
 20
-217.0137363218
 10
330.4425306276
 20
-218.0704584535
 10
328.4901097274
 20
-219.0517583002
 10
326.4250682498
 20
-219.9529603455
 10
324.2572424625
 20
-220.7697670089
 10
321.9969675629
 20
-221.498289155
 10
319.655012071
 20
-222.1350535538
 10
317.2425416087
 20
-222.6770268317
 10
314.7710451437
 20
-223.1216245953
 10
312.2523033786
 20
-223.4667281593
 10
309.6983215797
 20
-223.7106944302
 10
307.1212696497
 20
-223.8523600891
 10
304.5334254922
 20
-223.8910499547
 10
301.9471249631
 20
-223.8265800247
 10
299.3746920643
 20
-223.6592567159
 10
296.8283849431
 20
-223.3898776244
 10
294.3203392579
 20
-223.0197277234
 10
291.8625049572
 20
-222.5505687192
 10
289.4665942552
 20
-221.9846394309
 10
287.1440276306
 20
-221.3246337405
 10
284.9058712655
 20
-220.5736979323
 10
282.7627922637
 20
-219.7354109231
 10
280.7250025102
 20
-218.8137670606
 10
278.8022128613
 20
-217.8131588012
 10
277.003585194
 20
-216.7383551118
 10
275.3376937165
 20
-215.5944760934
 10
273.8124759893
 20
-214.3869738304
 10
272.4351989688
 20
-213.1216036636
 10
271.2124273558
 20
-211.8043937531
 10
270.1499856473
 20
-210.4416231709
 10
269.2529413432
 20
-209.0397848346
 10
268.5255683974
 20
-207.6055583249
 10
267.9713281199
 20
-206.145780613
 10
267.5928665424
 20
-204.6674065222
 10
267.3919867599
 20
-203.1774821172
 10
267.3696449789
 20
-201.6831074461
 10
267.5259465666
 20
-200.1914023264
 10
267.8601500019
 20
-198.7094782115
 10
268.3706576557
 20
-197.2443948518
 10
269.0550434502
 20
-195.8031352036
 10
269.9100390289
 20
-194.3925662712
 10
270.9315739282
 20
-193.019411355
 10
272.1147808457
 20
-191.6902150755
 10
273.4540183599
 20
-190.4113089682
 10
274.9429051743
 20
-189.1887886734
 10
276.5743490941
 20
-188.0284820016
 10
278.340569745
 20
-186.9359145287
  0
LWPOLYLINE
  5
D6
330
1F
100
AcDbEntity
  8
0
  6
Continuous
 62
     7
370
    25
100
AcDbPolyline
 90
       87
 70
   128
 43
0.0
 10
281.5225514405
 20
-188.7728334616
 10
279.8814914538
 20
-189.7920705805
 10
278.3736839971
 20
-190.8777400651
 10
277.0071804354
 20
-192.0240534523
 10
275.7892669053
 20
-193.2248915314
 10
274.7264406067
 20
-194.473846923
 10
273.8243768764
 20
-195.7642582946
 10
273.0878844063
 20
-197.089239253
 10
272.5208947071
 20
-198.4417209236
 10
272.1264331322
 20
-199.8144869263
 10
271.90660439
 20
-201.2002136727
 10
271.8625793726
 20
-202.5915068632
 10
271.9945938388
 20
-203.9809433051
 10
272.3019457803
 20
-205.3611104506
 10
272.78299147
 20
-206.724643653
 10
273.435167194
 20
-208.0642691266
 10
274.2549932033
 20
-209.3728381611
 10
275.238094128
 20
-210.643369321
 10
276.3792226857
 20
-211.8690849418
 10
277.6722959005
 20
-213.0434426839
 10
279.1104118969
 20
-214.1601786821
 10
280.6858954208
 20
-215.2133353452
 10
282.3903434445
 20
-216.1972922452
 10
284.2146619621
 20
-217.1067995241
 10
286.1491150516
 20
-217.9370062174
 10
288.1833827443
 20
-218.6834814952
 10
290.3066145318
 20
-219.3422409894
 10
292.5074775214
 20
-219.909773073
 10
294.7742311818
 20
-220.3830485542
 10
297.0947820017
 20
-220.7595415858
 10
299.45674671
 20
-221.0372433514
 10
301.8475253746
 20
-221.2146738505
 10
304.2543606715
 20
-221.2908841797
 10
306.6644122998
 20
-221.2654690781
 10
309.0648215194
 20
-221.1385646464
 10
311.4427796396
 20
-220.9108468264
 10
313.785600459
 20
-220.5835306401
 10
316.0807834858
 20
-220.1583625871
 10
318.3160837435
 20
-219.6376122801
 10
320.4795723567
 20
-219.0240557178
 10
322.5597103086
 20
-218.3209692025
 10
324.5453984901
 20
-217.5321034878
 10
326.4260369688
 20
-216.6616647709
 10
328.1915987459
 20
-215.7143010058
 10
329.8326587326
 20
-214.6950638869
 10
331.3404661893
 20
-213.6093944023
 10
332.706969751
 20
-212.4630810151
 10
333.9248832812
 20
-211.262242936
 10
334.9877095797
 20
-210.0132875443
 10
335.88977331
 20
-208.7228761728
 10
336.6262657801
 20
-207.3978952144
 10
337.1932554793
 20
-206.0454135437
 10
337.5877170542
 20
-204.6726475411
 10
337.8075457964
 20
-203.2869207946
 10
337.8515708138
 20
-201.8956276041
 10
337.7195563476
 20
-200.5061911622
 10
337.4122044061
 20
-199.1260240168
 10
336.9311587164
 20
-197.7624908143
 10
336.2789829924
 20
-196.4228653408
 10
335.4591569831
 20
-195.1142963063
 10
334.4760560584
 20
-193.8437651464
 10
333.3349275008
 20
-192.6180495256
 10
332.0418542859
 20
-191.4436917835
 10
330.6037382896
 20
-190.3269557853
 10
329.0282547656
 20
-189.2737991221
 10
327.3238067419
 20
-188.2898422222
 10
325.4994882244
 20
-187.3803349432
 10
323.5650351349
 20
-186.55012825
 10
321.5307674421
 20
-185.8036529722
 10
319.4075356547
 20
-185.144893478
 10
317.206672665
 20
-184.5773613944
 10
314.9399190046
 20
-184.1040859132
 10
312.6193681848
 20
-183.7275928816
 10
310.2574034765
 20
-183.449891116
 10
307.8666248118
 20
-183.2724606169
 10
305.4597895149
 20
-183.1962502877
 10
303.0497378866
 20
-183.2216653893
 10
300.6493286671
 20
-183.3485698209
 10
298.2713705469
 20
-183.576287641
 10
295.9285497274
 20
-183.9036038272
 10
293.6333667006
 20
-184.3287718803
 10
291.398066443
 20
-184.8495221873
 10
289.2345778298
 20
-185.4630787495
 10
287.1544398778
 20
-186.1661652649
 10
285.1687516963
 20
-186.9550309795
 10
283.2881132177
 20
-187.8254696965
 10
281.5225514405
 20
-188.7728334616
  0
LWPOLYLINE
  5
D7
330
1F
100
AcDbEntity
  8
0
  6
Continuous
 62
     7
370
    25
100
AcDbPolyline
 90
       92
 70
   128
 43
0.0
 10
330.6664722272
 20
-13.0176318888
 10
332.0232372327
 20
-13.8011184163
 10
333.4999021196
 20
-14.6538144325
 10
335.089423096
 20
-15.5716707402
 10
336.7842348025
 20
-16.5503005613
 10
338.5762529468
 20
-17.585035808
 10
340.4569401577
 20
-18.6709651097
 10
342.4173402301
 20
-19.8028927506
 10
344.4480965636
 20
-20.9754466537
 10
346.5395483101
 20
-22.1830061408
 10
348.6817132522
 20
-23.4198502203
 10
350.8643971207
 20
-24.6800686155
 10
353.0771909612
 20
-25.9576575816
 10
355.3095448907
 20
-27.2465259881
 10
357.550832635
 20
-28.5405447507
 10
359.7903673338
 20
-29.8335255342
 10
362.0174726636
 20
-31.119328738
 10
364.2215407894
 20
-32.3918117836
 10
366.3920679263
 20
-33.6449104807
 10
368.5187103157
 20
-34.8726713452
 10
370.5913313113
 20
-36.0692240296
 10
372.6000576846
 20
-37.2288685833
 10
374.5353123051
 20
-38.346088234
 10
376.3878774018
 20
-39.4155494095
 10
378.148920617
 20
-40.4321715286
 10
379.8100518879
 20
-41.3910929203
 10
381.3633542334
 20
-42.2877494318
 10
382.8014264365
 20
-43.1178625664
 10
384.1174156832
 20
-43.8774887426
 10
385.305044727
 20
-44.5630045551
 10
386.3586672075
 20
-45.1711326279
 10
387.2732485519
 20
-45.698991417
 10
388.044438415
 20
-46.1440579455
 10
388.6685594845
 20
-46.5042039199
 10
389.1426377732
 20
-46.7777132157
 10
389.4644131566
 20
-46.9633001238
 10
389.632355177
 20
-47.0600576356
 10
389.645656459
 20
-47.067538805
 10
389.504265636
 20
-46.9857027545
 10
389.2088452039
 20
-46.8149511697
 10
388.7608031308
 20
-46.5560796275
 10
388.1622810035
 20
-46.2103254995
 10
387.4161290025
 20
-45.7793474167
 10
386.5259032682
 20
-45.2651994088
 10
385.4958421932
 20
-44.6703172131
 10
384.3308558851
 20
-43.9975426041
 10
383.0364998256
 20
-43.2500899327
 10
381.6189432595
 20
-42.4315035346
 10
380.0849375851
 20
-41.5457003142
 10
378.4417900123
 20
-40.5968997807
 10
376.6973372208
 20
-39.5896027512
 10
374.8598874081
 20
-38.5286430616
 10
372.9382018502
 20
-37.4190552437
 10
370.9414343159
 20
-36.2661368828
 10
368.8791007733
 20
-35.075367246
 10
366.7610306578
 20
-33.8524308563
 10
364.5973168223
 20
-32.6031551351
 10
362.3982681228
 20
-31.3335012759
 10
360.1743685877
 20
-30.0495011264
 10
357.9362128811
 20
-28.7572898894
 10
355.6944667898
 20
-27.4630255141
 10
353.4598171741
 20
-26.1728567588
 10
351.2429074305
 20
-24.8929619754
 10
349.0543039053
 20
-23.6294171712
 10
346.9044392609
 20
-22.3882484842
 10
344.8035551814
 20
-21.1753656432
 10
342.7616654945
 20
-19.9965619718
 10
340.7885000307
 20
-18.8574485165
 10
338.8934614474
 20
-17.763459539
 10
337.0855825468
 20
-16.7197913741
 10
335.3734744157
 20
-15.7314333268
 10
333.7652985198
 20
-14.803087686
 10
332.2687195762
 20
-13.9391851035
 10
330.8908686341
 20
-13.1438450307
 10
329.6383103945
 20
-12.4208386024
 10
328.5170158804
 20
-11.7736306578
 10
327.5323285219
 20
-11.2053023676
 10
326.688937156
 20
-10.7185508579
 10
325.9908668066
 20
-10.3157143117
 10
325.4414391723
 20
-9.9986913624
 10
325.0432752603
 20
-9.7690095425
 10
324.7982716786
 20
-9.627753804
 10
324.7075966853
 20
-9.5755916169
 10
324.7716796514
 20
-9.6127912279
 10
324.9902189635
 20
-9.7391714716
 10
325.3621675357
 20
-9.954111663
 10
325.8857631031
 20
-10.2565903846
 10
326.5585031965
 20
-10.6451923335
 10
327.3771767529
 20
-11.1180444492
 10
328.3378930913
 20
-11.6728934834
 10
329.4360687419
 20
-12.307098397
 10
330.6664722272
 20
-13.0176318888
  0
LWPOLYLINE
  5
D8
330
1F
100
AcDbEntity
  8
0
  6
Continuous
 62
     7
370
    25
100
AcDbPolyline
 90
       87
 70
   128
 43
0.0
 10
333.8484539227
 20
-14.8545508217
 10
332.7062795964
 20
-14.1949676718
 10
331.6947025485
 20
-13.6107596821
 10
330.8191149416
 20
-13.1050712976
 10
330.0841871732
 20
-12.680593785
 10
329.4938454858
 20
-12.3395827171
 10
329.051237722
 20
-12.0838686132
 10
328.7587254224
 20
-11.9147915382
 10
328.6178680205
 20
-11.833283225
 10
328.6294175741
 20
-11.8397666901
 10
328.79331218
 20
-11.9342163046
 10
329.1086799252
 20
-12.1161114009
 10
329.5738323017
 20
-12.3844811336
 10
330.1862944992
 20
-12.7379128407
 10
330.9427961857
 20
-13.1745071697
 10
331.8392985076
 20
-13.6919423308
 10
332.8710230661
 20
-14.2874451953
 10
334.0324591607
 20
-14.9578410984
 10
335.317415156
 20
-15.6995743684
 10
336.719034945
 20
-16.508653946
 10
338.2298358158
 20
-17.3807938754
 10
339.8417605586
 20
-18.3113156284
 10
341.5462085823
 20
-19.2952725284
 10
343.334085881
 20
-20.3274147175
 10
345.195854096
 20
-21.4022174794
 10
347.1215752146
 20
-22.5139709217
 10
349.1009795644
 20
-23.6567127668
 10
351.1235073843
 20
-24.8243801072
 10
353.1783624954
 20
-26.0107217583
 10
355.2545867173
 20
-27.2094051025
 10
357.3410954288
 20
-28.4140457415
 10
359.4267638375
 20
-29.618211679
 10
361.5004612242
 20
-30.8154887173
 10
363.5511200897
 20
-31.9994717099
 10
365.5678059612
 20
-33.1638444103
 10
367.539752953
 20
-34.3024091277
 10
369.4564414751
 20
-35.4090829254
 10
371.3076443314
 20
-36.4779729057
 10
373.0834886225
 20
-37.5033480741
 10
374.7744926246
 20
-38.4797579714
 10
376.3716448148
 20
-39.4019870478
 10
377.8664170415
 20
-40.2651231049
 10
379.2508251113
 20
-41.0645618622
 10
380.5175012281
 20
-41.7960183659
 10
381.659670286
 20
-42.4556045571
 10
382.6712526022
 20
-43.0398095054
 10
383.5468402091
 20
-43.5454857226
 10
384.2817627091
 20
-43.9699784439
 10
384.872109665
 20
-44.3109864704
 10
385.3147174288
 20
-44.5667005743
 10
385.6072297283
 20
-44.735765482
 10
385.7480871302
 20
-44.8172737952
 10
385.7365375767
 20
-44.81079033
 10
385.5726403366
 20
-44.7163544037
 10
385.2572725913
 20
-44.5344593073
 10
384.7921202148
 20
-44.2660895746
 10
384.1796606515
 20
-43.9126563469
 10
383.4231589651
 20
-43.4760620178
 10
382.5266566431
 20
-42.9586268568
 10
381.4949294504
 20
-42.3631255129
 10
380.3334933558
 20
-41.6927296098
 10
379.0485399948
 20
-40.9509948192
 10
377.6469175716
 20
-40.1419167623
 10
376.1361167008
 20
-39.2697768328
 10
374.5241919579
 20
-38.3392550798
 10
372.8197439343
 20
-37.3552981799
 10
371.0318666356
 20
-36.3231559907
 10
369.1700984205
 20
-35.2483532288
 10
367.2443799361
 20
-34.1365982658
 10
365.2649729521
 20
-32.9938579414
 10
363.2424451323
 20
-31.826190601
 10
361.1875926553
 20
-30.6398474292
 10
359.1113684334
 20
-29.4411640851
 10
357.0248597219
 20
-28.2365234461
 10
354.939188679
 20
-27.0323590292
 10
352.8654912924
 20
-25.8350819909
 10
350.8148324268
 20
-24.6510989983
 10
348.7981491895
 20
-23.4867126099
 10
346.8262021977
 20
-22.3481478924
 10
344.9095136756
 20
-21.2414740948
 10
343.0583108194
 20
-20.1725962818
 10
341.2824665282
 20
-19.1472211134
 10
339.5914572577
 20
-18.1708142575
 10
337.9943103359
 20
-17.2485699724
 10
336.4995381092
 20
-16.3854460827
 10
335.1151247711
 20
-15.5860103667
 10
333.8484539227
 20
-14.8545508217
  0
LWPOLYLINE
  5
D9
330
1F
100
AcDbEntity
  8
0
  6
Continuous
 62
     1
370
    25
100
AcDbPolyline
 90
       13
 70
   128
 43
0.0
 10
331.3735804414
 20
-116.332087977
 10
333.1398010923
 20
-117.4246554499
 10
334.7712450121
 20
-118.5849621216
 10
336.2601318266
 20
-119.8074824165
 10
337.5993693407
 20
-121.0863885238
 10
338.7825762582
 20
-122.4155848033
 10
339.8041111575
 20
-123.7887397195
 10
340.6591067362
 20
-125.1993086518
 10
341.3434925307
 20
-126.6405683001
 10
341.8540001846
 20
-128.1056516597
 10
342.1882036198
 20
-129.5875757746
 10
342.3445052075
 20
-131.0792808944
 10
342.3570755051
 20
-131.6397406819
  0
LWPOLYLINE
  5
DA
330
1F
100
AcDbEntity
  8
0
  6
Continuous
 62
     1
370
    25
100
AcDbPolyline
 90
       36
 70
   128
 43
0.0
 10
267.3570746813
 20
-131.6397406819
 10
267.3584721128
 20
-131.4529017443
 10
267.4701494075
 20
-129.9598622291
 10
267.7599932847
 20
-128.4748283264
 10
268.226622118
 20
-127.0048765141
 10
268.867810027
 20
-125.5570125587
 10
269.6805053163
 20
-124.1381350186
 10
270.6608298174
 20
-122.755005211
 10
271.8041170839
 20
-121.4142160382
 10
273.1049170015
 20
-120.1221558709
 10
274.5570300321
 20
-118.8849826971
 10
276.1535370132
 20
-117.7085917126
 10
277.8868291628
 20
-116.5985888754
 10
279.7486454928
 20
-115.5602632244
 10
281.7301167669
 20
-114.5985645448
 10
283.8217986748
 20
-113.7180750927
 10
286.0137215935
 20
-112.9229899926
 10
288.295443312
 20
-112.2170989657
 10
290.65608698
 20
-111.6037644225
 10
293.0844053158
 20
-111.0859117686
 10
295.5688276925
 20
-110.6660083049
 10
298.0975108455
 20
-110.3460522031
 10
300.6584073616
 20
-110.127570985
 10
303.2393117771
 20
-110.0116055549
 10
305.8279251145
 20
-109.9987079193
 10
308.4119141524
 20
-110.0889389052
 10
310.9789601572
 20
-110.2818704418
 10
313.5168339573
 20
-110.5765802372
 10
316.0134394074
 20
-110.9716677467
 10
318.4568812178
 20
-111.4652461882
 10
320.8355130291
 20
-112.054965733
 10
323.1379979974
 20
-112.7380165474
 10
325.3533683933
 20
-113.5111419078
 10
327.4710651141
 20
-114.3706579705
 10
329.4809930019
 20
-115.3124704984
 10
331.3735804414
 20
-116.332087977
  0
LWPOLYLINE
  5
DB
330
1F
100
AcDbEntity
  8
0
  6
Continuous
 62
     1
370
    25
100
AcDbPolyline
 90
       15
 70
   128
 43
0.0
 10
331.3735804414
 20
-116.332087977
 10
333.158306193
 20
-117.3623828801
 10
334.8451784869
 20
-118.3361653731
 10
336.426150897
 20
-119.2487995967
 10
337.8936965889
 20
-120.0959375604
 10
339.2408178686
 20
-120.8735368159
 10
340.4610935979
 20
-121.5778999979
 10
341.5487134386
 20
-122.2056672161
 10
342.4984926698
 20
-122.7538367709
 10
343.3059024809
 20
-123.2198100179
 10
343.9670956549
 20
-123.6013666467
 10
344.4789256662
 20
-123.8966726623
 10
344.8389479974
 20
-124.1043389349
 10
345.04545175
 20
-124.2233679633
 10
345.099531425
 20
-124.254423731
  0
LWPOLYLINE
  5
DC
330
1F
100
AcDbEntity
  8
0
  6
Continuous
 62
     1
370
    25
100
AcDbPolyline
 90
       33
 70
   128
 43
0.0
 10
280.1476270702
 20
-86.7544264388
 10
280.1817571272
 20
-86.7742613287
 10
280.3617512529
 20
-86.878380864
 10
280.695488166
 20
-87.0712573557
 10
281.1813746774
 20
-87.3519755606
 10
281.8170994658
 20
-87.7192044804
 10
282.5996309471
 20
-88.1711833877
 10
283.5252402777
 20
-88.7057693843
 10
284.5895170205
 20
-89.3204009839
 10
285.7873884071
 20
-90.012163039
 10
287.1131451859
 20
-90.7777474863
 10
288.5604725736
 20
-91.6135115238
 10
290.1224709994
 20
-92.515474763
 10
291.7916969346
 20
-93.4793352007
 10
293.5601984545
 20
-94.5005034413
 10
295.4195422379
 20
-95.5741053608
 10
297.3608721785
 20
-96.6950303975
 10
299.3749383599
 20
-97.8579391581
 10
301.4521378862
 20
-99.0572885141
 10
303.5825754677
 20
-100.2873589778
 10
305.7560963479
 20
-101.5422889243
 10
307.9623455731
 20
-102.8160996872
 10
310.1908061875
 20
-104.1027297773
 10
312.4308624535
 20
-105.3960288
 10
314.6718340965
 20
-106.6898487081
 10
316.9030461098
 20
-107.978026311
 10
319.1138636582
 20
-109.2544064667
 10
321.2937546395
 20
-110.5129177457
 10
323.4323252456
 20
-111.747565584
 10
325.5193874638
 20
-112.9524590881
 10
327.544998589
 20
-114.121861222
 10
329.4994981026
 20
-115.2501979286
 10
331.3735804414
 20
-116.332087977
  0
ENDSEC
  0
SECTION
  2
OBJECTS
  0
DICTIONARY
  5
C
330
0
100
AcDbDictionary
281
     1
  3
ACAD_GROUP
350
D
  3
ACAD_LAYOUT
350
1A
  3
ACAD_MLINESTYLE
350
17
  3
ACAD_PLOTSETTINGS
350
19
  3
ACAD_PLOTSTYLENAME
350
E
  3
ACAD_SCALELIST
350
47
  0
DICTIONARY
  5
D
102
{ACAD_REACTORS
330
C
102
}
330
C
100
AcDbDictionary
281
     1
  0
DICTIONARY
  5
1A
102
{ACAD_REACTORS
330
C
102
}
330
C
100
AcDbDictionary
281
     1
  3
Layout1
350
1E
  3
Layout2
350
26
  3
Model
350
22
  0
DICTIONARY
  5
17
102
{ACAD_REACTORS
330
C
102
}
330
C
100
AcDbDictionary
281
     1
  3
Standard
350
18
  0
DICTIONARY
  5
19
102
{ACAD_REACTORS
330
C
102
}
330
C
100
AcDbDictionary
281
     1
  0
ACDBDICTIONARYWDFLT
  5
E
102
{ACAD_REACTORS
330
C
102
}
330
C
100
AcDbDictionary
281
     1
  3
Normal
350
F
100
AcDbDictionaryWithDefault
340
F
  0
DICTIONARY
  5
47
102
{ACAD_REACTORS
330
C
102
}
330
C
100
AcDbDictionary
281
     1
  3
A0
350
48
  3
A1
350
49
  3
A2
350
4A
  3
A3
350
4B
  3
A4
350
4C
  3
A5
350
4D
  3
A6
350
4E
  3
A7
350
4F
  3
A8
350
50
  3
A9
350
51
  3
B0
350
52
  3
B1
350
53
  3
B2
350
54
  3
B3
350
55
  3
B4
350
56
  3
B5
350
57
  3
B6
350
58
  3
B7
350
59
  3
B8
350
5A
  3
B9
350
5B
  3
C0
350
5C
  3
C1
350
5D
  3
C2
350
5E
  3
C3
350
5F
  3
C4
350
60
  3
C5
350
61
  3
C6
350
62
  3
C7
350
63
  3
C8
350
64
  3
C9
350
65
  3
D0
350
66
  3
D1
350
67
  3
D2
350
68
  0
LAYOUT
  5
1E
102
{ACAD_REACTORS
330
1A
102
}
330
1A
100
AcDbPlotSettings
  1

  2
none_device
  4

  6

 40
0.0
 41
0.0
 42
0.0
 43
0.0
 44
0.0
 45
0.0
 46
0.0
 47
0.0
 48
0.0
 49
0.0
140
0.0
141
0.0
142
1.0
143
1.0
 70
   688
 72
     1
 73
     0
 74
     5
  7

 75
    16
147
1.0
148
0.0
149
0.0
100
AcDbLayout
  1
Layout1
 70
     1
 71
     1
 10
0.0
 20
0.0
 11
420.0
 21
297.0
 12
0.0
 22
0.0
 32
0.0
 14
1.0000000000E+20
 24
1.0000000000E+20
 34
1.0000000000E+20
 15
-1.0000000000E+20
 25
-1.0000000000E+20
 35
-1.0000000000E+20
146
0.0
 13
0.0
 23
0.0
 33
0.0
 16
1.0
 26
0.0
 36
0.0
 17
0.0
 27
1.0
 37
0.0
 76
     0
330
1B
  0
LAYOUT
  5
26
102
{ACAD_REACTORS
330
1A
102
}
330
1A
100
AcDbPlotSettings
  1

  2
none_device
  4

  6

 40
0.0
 41
0.0
 42
0.0
 43
0.0
 44
0.0
 45
0.0
 46
0.0
 47
0.0
 48
0.0
 49
0.0
140
0.0
141
0.0
142
1.0
143
1.0
 70
   688
 72
     1
 73
     0
 74
     5
  7

 75
    16
147
1.0
148
0.0
149
0.0
100
AcDbLayout
  1
Layout2
 70
     1
 71
     2
 10
0.0
 20
0.0
 11
0.0
 21
0.0
 12
0.0
 22
0.0
 32
0.0
 14
0.0
 24
0.0
 34
0.0
 15
0.0
 25
0.0
 35
0.0
146
0.0
 13
0.0
 23
0.0
 33
0.0
 16
1.0
 26
0.0
 36
0.0
 17
0.0
 27
1.0
 37
0.0
 76
     0
330
23
  0
LAYOUT
  5
22
102
{ACAD_REACTORS
330
1A
102
}
330
1A
100
AcDbPlotSettings
  1

  2
none_device
  4
Letter_(8.50_x_11.00_Inches)
  6

 40
6.35
 41
6.35
 42
6.35000508
 43
6.35000508
 44
215.9
 45
279.4
 46
0.0
 47
0.0
 48
0.0
 49
0.0
140
0.0
141
0.0
142
1.0
143
1.0
 70
  1712
 72
     1
 73
     0
 74
     0
  7

 75
     0
147
1.0
148
0.0
149
0.0
100
AcDbLayout
  1
Model
 70
     1
 71
     0
 10
0.0
 20
0.0
 11
279.4
 21
215.9
 12
0.0
 22
0.0
 32
0.0
 14
0.0
 24
0.0
 34
0.0
 15
279.4
 25
215.9
 35
0.0
146
0.0
 13
0.0
 23
0.0
 33
0.0
 16
1.0
 26
0.0
 36
0.0
 17
0.0
 27
1.0
 37
0.0
 76
     0
330
1F
331
29
  0
MLINESTYLE
  5
18
102
{ACAD_REACTORS
330
17
102
}
330
17
100
AcDbMlineStyle
  2
Standard
 70
     0
  3

 62
   256
 51
90.0
 52
90.0
 71
     2
 49
0.5
 62
   256
  6
BYLAYER
 49
-0.5
 62
   256
  6
BYLAYER
  0
ACDBPLACEHOLDER
  5
F
102
{ACAD_REACTORS
330
E
102
}
330
E
  0
SCALE
  5
48
102
{ACAD_REACTORS
330
47
102
}
330
47
100
AcDbScale
 70
     0
300
1:1
140
1.0
141
1.0
290
     1
  0
SCALE
  5
49
102
{ACAD_REACTORS
330
47
102
}
330
47
100
AcDbScale
 70
     0
300
1:2
140
1.0
141
2.0
290
     0
  0
SCALE
  5
4A
102
{ACAD_REACTORS
330
47
102
}
330
47
100
AcDbScale
 70
     0
300
1:4
140
1.0
141
4.0
290
     0
  0
SCALE
  5
4B
102
{ACAD_REACTORS
330
47
102
}
330
47
100
AcDbScale
 70
     0
300
1:5
140
1.0
141
5.0
290
     0
  0
SCALE
  5
4C
102
{ACAD_REACTORS
330
47
102
}
330
47
100
AcDbScale
 70
     0
300
1:8
140
1.0
141
8.0
290
     0
  0
SCALE
  5
4D
102
{ACAD_REACTORS
330
47
102
}
330
47
100
AcDbScale
 70
     0
300
1:10
140
1.0
141
10.0
290
     0
  0
SCALE
  5
4E
102
{ACAD_REACTORS
330
47
102
}
330
47
100
AcDbScale
 70
     0
300
1:16
140
1.0
141
16.0
290
     0
  0
SCALE
  5
4F
102
{ACAD_REACTORS
330
47
102
}
330
47
100
AcDbScale
 70
     0
300
1:20
140
1.0
141
20.0
290
     0
  0
SCALE
  5
50
102
{ACAD_REACTORS
330
47
102
}
330
47
100
AcDbScale
 70
     0
300
1:30
140
1.0
141
30.0
290
     0
  0
SCALE
  5
51
102
{ACAD_REACTORS
330
47
102
}
330
47
100
AcDbScale
 70
     0
300
1:40
140
1.0
141
40.0
290
     0
  0
SCALE
  5
52
102
{ACAD_REACTORS
330
47
102
}
330
47
100
AcDbScale
 70
     0
300
1:50
140
1.0
141
50.0
290
     0
  0
SCALE
  5
53
102
{ACAD_REACTORS
330
47
102
}
330
47
100
AcDbScale
 70
     0
300
1:100
140
1.0
141
100.0
290
     0
  0
SCALE
  5
54
102
{ACAD_REACTORS
330
47
102
}
330
47
100
AcDbScale
 70
     0
300
2:1
140
2.0
141
1.0
290
     0
  0
SCALE
  5
55
102
{ACAD_REACTORS
330
47
102
}
330
47
100
AcDbScale
 70
     0
300
4:1
140
4.0
141
1.0
290
     0
  0
SCALE
  5
56
102
{ACAD_REACTORS
330
47
102
}
330
47
100
AcDbScale
 70
     0
300
8:1
140
8.0
141
1.0
290
     0
  0
SCALE
  5
57
102
{ACAD_REACTORS
330
47
102
}
330
47
100
AcDbScale
 70
     0
300
10:1
140
10.0
141
1.0
290
     0
  0
SCALE
  5
58
102
{ACAD_REACTORS
330
47
102
}
330
47
100
AcDbScale
 70
     0
300
100:1
140
100.0
141
1.0
290
     0
  0
SCALE
  5
59
102
{ACAD_REACTORS
330
47
102
}
330
47
100
AcDbScale
 70
     0
300
1/128" = 1'-0"
140
0.0078125
141
12.0
290
     0
  0
SCALE
  5
5A
102
{ACAD_REACTORS
330
47
102
}
330
47
100
AcDbScale
 70
     0
300
1/64" = 1'-0"
140
0.015625
141
12.0
290
     0
  0
SCALE
  5
5B
102
{ACAD_REACTORS
330
47
102
}
330
47
100
AcDbScale
 70
     0
300
1/32" = 1'-0"
140
0.03125
141
12.0
290
     0
  0
SCALE
  5
5C
102
{ACAD_REACTORS
330
47
102
}
330
47
100
AcDbScale
 70
     0
300
1/16" = 1'-0"
140
0.0625
141
12.0
290
     0
  0
SCALE
  5
5D
102
{ACAD_REACTORS
330
47
102
}
330
47
100
AcDbScale
 70
     0
300
3/32" = 1'-0"
140
0.09375
141
12.0
290
     0
  0
SCALE
  5
5E
102
{ACAD_REACTORS
330
47
102
}
330
47
100
AcDbScale
 70
     0
300
1/8" = 1'-0"
140
0.125
141
12.0
290
     0
  0
SCALE
  5
5F
102
{ACAD_REACTORS
330
47
102
}
330
47
100
AcDbScale
 70
     0
300
3/16" = 1'-0"
140
0.1875
141
12.0
290
     0
  0
SCALE
  5
60
102
{ACAD_REACTORS
330
47
102
}
330
47
100
AcDbScale
 70
     0
300
1/4" = 1'-0"
140
0.25
141
12.0
290
     0
  0
SCALE
  5
61
102
{ACAD_REACTORS
330
47
102
}
330
47
100
AcDbScale
 70
     0
300
3/8" = 1'-0"
140
0.375
141
12.0
290
     0
  0
SCALE
  5
62
102
{ACAD_REACTORS
330
47
102
}
330
47
100
AcDbScale
 70
     0
300
1/2" = 1'-0"
140
0.5
141
12.0
290
     0
  0
SCALE
  5
63
102
{ACAD_REACTORS
330
47
102
}
330
47
100
AcDbScale
 70
     0
300
3/4" = 1'-0"
140
0.75
141
12.0
290
     0
  0
SCALE
  5
64
102
{ACAD_REACTORS
330
47
102
}
330
47
100
AcDbScale
 70
     0
300
1" = 1'-0"
140
1.0
141
12.0
290
     0
  0
SCALE
  5
65
102
{ACAD_REACTORS
330
47
102
}
330
47
100
AcDbScale
 70
     0
300
1-1/2" = 1'-0"
140
1.5
141
12.0
290
     0
  0
SCALE
  5
66
102
{ACAD_REACTORS
330
47
102
}
330
47
100
AcDbScale
 70
     0
300
3" = 1'-0"
140
3.0
141
12.0
290
     0
  0
SCALE
  5
67
102
{ACAD_REACTORS
330
47
102
}
330
47
100
AcDbScale
 70
     0
300
6" = 1'-0"
140
6.0
141
12.0
290
     0
  0
SCALE
  5
68
102
{ACAD_REACTORS
330
47
102
}
330
47
100
AcDbScale
 70
     0
300
1'-0" = 1'-0"
140
12.0
141
12.0
290
     0
  0
ENDSEC
  0
EOF
